Oops, an error
Loading. Please wait.

Mozart - Tema Con Variaciones Iii Tab

37 views 1 this week
no commentswrite comment
1 2 3 4 5
2 more votes to show rating
add to favorites
launch autoscroll
font size
0
reset
how to read this tab
guitar tuner
×
Best way to learn
"Mozart - Tema Con Variaciones III"
Autoscroll
slow
fast
+/-
esc
set tempo
stop
1 |---------------------------------------------------
2 |------------0-2-3--0-2-3--0--------0---------------
3 |--------0-2-----------------2-2--0------0---2------
4 |--0-2-4-------------------------------2---4---0-4--
5 |---------------------------------------------------
6 |---------------------------------------------------


1 |-------------------------------------------
2 |-------------------------0-2-3--0-2-3--0---
3 |----0----------------0-2-----------------2-
4 |--2---2-2-0-0--0-2-4-----------------------
5 |-------------------------------------------
6 |-------------------------------------------


1 |---------------------------------------------
2 |------0--------------------------------------
3 |----0-----0---2-------0----------2---2-0---0-
4 |--------2---4---0-4-2---2-2-0--0---4-----2---
5 |---------------------------------------------
6 |---------------------------------------------


1 |---------------------------------------------
2 |---------------------------------------------
3 |-----------------2---2-0---0-----------------
4 |--4--0--4-2--0-2---4-----2-------------------
5 |---------------------------------------------
6 |---------------------------------------------


1 |---------------------------------------------
2 |---------------------------------------------
3 |------------------------------0-2-3----------
4 |--------------------------0-2----------------
5 |--4--0--4--2--0--2--0-2-4--------------------
6 |---------------------------------------------


1 |---------------------------------------------
2 |--0-2-3--0---------0-------------------------
3 |------------2-2--0-----0---2-------0---------
4 |---------------------2---4---0-4-2---2-2-0---
5 |---------------------------------------------
6 |---------------------------------------------


esta es la tercera y ultima voz del tema con variaciones
las tres estan en un tiempo de 4/4 bueno espero q les
guste este tema.
Suggest correction
Give kudos to tab author, rate the tab!
1 2 3 4 5
comments
print report bad tab
guest
You may want to rate the tab now too:
select rating
Wanna post a correction for this tab? Suggest correction