Oops, an error
Loading. Please wait.

N. Coste - Prelude Tab

19 views 1 this week
no commentswrite comment
1 2 3 4 5
2 more votes to show rating
add to favorites
launch autoscroll
font size
0
reset
how to read this tab
guitar tuner
Autoscroll
slow
fast
+/-
esc
set tempo
stop
Help us to improve Ultimate-Guitar.com Take our survey!
×
E------------------------------------------------------
A-0----------------------------------------------------
D-----------------------------------3-----3-2-----2-0--
g---2---------------------------2-0---2-------2--------
b-----1-------------------3-1-0---------1-------1------
e-------0-5-7-8-7-5-3-1-0------------------------------

E-------------------------------0----------------------
A---------------------------------------------0-2-3----
D-----0-1-----1-2-----------------------------------0--
g-2-------2-------2-----------2-1-----------2----------
b-------------------1---3-1-0-------4-3-2-1------------
e---1-------2---------0-----------2--------------------

E-------------------------------/----------------------
A-------0------------------0-0--/----------------------
D-2-4---------------------------/----------------------
g-----1---2---------------------/----------------------
b-----------0-1-3---------------/----------------------
e-----------------0-2-4-5--5-5--/----------------------
Suggest correction
Give kudos to tab author, rate the tab!
1 2 3 4 5
comments
print report bad tab
guest
You may want to rate the tab now too:
select rating
Wanna post a correction for this tab? Suggest correction