Oops, an error
Loading. Please wait.
16 views 1 this week
no commentswrite comment
1 2 3 4 5
3 more votes to show rating
add to favorites
launch autoscroll
font size
0
reset
how to read this tab
guitar tuner
×
Best way to learn
"Opus"
Autoscroll
slow
fast
+/-
esc
set tempo
stop
Hola, esta rolita esta muy chida y muy dificil, me llevo un rato sacarla 
pero en fin, esta está sacada de la partitura, así que ni le falta ni le 
sobra nada, espero que les guste.

Está en compas de 4/4

Primera parte
|-----------0----|------------0---|----------------|----------------|
|-------2------2-|--------0------0|----------3-----|----------2-----|
|2---------------|---1------------|------2-------2-|------2-------2-|
|----------------|----------------|--4-------------|--2-------------|
|----------------|----------------|----------------|----------------|
|----------------|----------------|----------------|----------------|

|----------2-----|----------0-----|----------0-----|----------------|
|----------------|----------------|--------------3-|----------2-----|
|------2-------2-|------2-------2-|------1---------|------2-------2-|
|--0-------------|----------------|----------------|----------------|
|----------------|--4-------------|--2-------------|--0-------------|
|----------------|----------------|----------------|----------------|

|----------------|----------------|----------------|----------0-----|
|----------0-----|----------2-----|----------4-----|----------------|
|------1-------1-|------2-------2-|------2-------2-|------1-------1-|
|----------------|----------------|----------------|----------------|
|----------------|--0-------------|--2-------------|--4-------------|
|--0-------------|----------------|----------------|----------------|

|----------0-----|----------------|------0---------|--------------0-|
|--------------2-|--------------4-|--------------0-|----------0-----|
|----------------|------2---------|----------1-----|------1---------|
|------4---------|----------4-----|----------------|--2-------------|
|--0-------------|--2-------------|----------------|----------------|
|----------------|----------------|--0-------------|----------------|

|-----------0----|------------0---|----------------|----------------|
|-------2------2-|--------0------0|----------3-----|----------2-----|
|2---------------|---1------------|------2-------2-|------2-------2-|
|----------------|----------------|--4-------------|--2-------------|
|----------------|----------------|----------------|----------------|
|----------------|----------------|----------------|----------------|

|----------2-----|----------0-----|-----------4----|----------5-----|
|----------------|----------------|-------3------3-|------2-------2-|
|------2-------2-|------2-------2-|----------------|----------------|
|--0-------------|----------------|----------------|----------------|
|----------------|--4-------------|--2-------------|--0-------------|
|----------------|----------------|----------------|----------------|

|----------2-----|----------2-----|----------0-----|----------0-----|
|------3-------3-|------3-------3-|------3-------3-|------2-------2-|
|----------------|--4-------------|--1-------------|--2-------------|
|--0-------------|----------------|----------------|----------------|
|----------------|----------------|----------------|----------------|
|----------------|----------------|----------------|----------------|


|----------------|----------------|----------------|----------------|
|----------3-----|----------0-----|------2---------|----------------|
|------4-------4-|------1-------1-|--2-----------2-|----------------|
|--0-------------|--2-------------|----------2-----|----------------|
|----------------|----------------|----------------|--0-------------|
|----------------|----------------|----------------|----------------|


Segunda Parte
|----------------|----------------|----------------|----------0-----|
|----------0-----|----------0-----|----------2-----|------2-------2-|
|------1-------1-|------1-------1-|------2-------2-|----------------|
|----------------|--2-------------|----------------|--2-------------|
|----------------|----------------|----------------|----------------|
|--0-------------|----------------|--0-------------|----------------|

|----------------|----------------|----------------|----------------|
|----------3-----|----------2-----|----------2-----|----------0-----|
|------4-------4-|------2-------2-|------2-------2-|------1-------1-|
|----------------|--2-------------|----------------|--2-------------|
|----------------|----------------|----------------|----------------|
|--0-------------|----------------|--0-------------|----------------|

|----------------|----------------|----------------|----------0-----|
|----------0-----|----------0-----|----------2-----|------2-------2-|
|------1-------1-|------1-------1-|------2-------2-|----------------|
|----------------|--2-------------|----------------|--2-------------|
|----------------|----------------|----------------|----------------|
|--0-------------|----------------|--0-------------|----------------|

|----------------|----------------|----------------|--------------0-|
|----------3-----|----------2-----|----------0-----|----------0-----|
|------4-------4-|------2-------2-|------1-------1-|------1---------|
|----------------|--2-------------|----------------|--2-------------|
|----------------|----------------|----------------|----------------|
|--0-------------|----------------|--0-------------|----------------|

|----------------|----------------|----------0-----|----------1-----|
|----------2-----|----------3-----|----------------|----------------|
|------2-------2-|------2-------2-|------2-------2-|------2-------2-|
|----------------|----------------|----------------|----------------|
|--0-------------|--2-------------|--4-------------|--4-------------|
|----------------|----------------|----------------|----------------|

|----------2-----|----------0-----|----------------|----------2-----|
|----------------|----------------|----------4-----|----------------|
|------2-------2-|------3-------3-|------4-------4-|------2-------2-|
|--0-------------|----------------|----------------|--1-------------|
|----------------|--4-------------|--2-------------|----------------|
|----------------|----------------|----------------|----------------|

|----------0-----|----------------|----------------|----------------|
|----------------|----------3-----|----------2-----|----------2-----|
|------1-------1-|------1-------1-|------1-------1-|------2-------2-|
|--2-------------|--2-------------|--3-------------|--4-------------|
|----------------|----------------|----------------|----------------|
|----------------|----------------|----------------|----------------|

|----------------|----------------|----------------|--0-------------|
|----------0-----|----------0-----|----------0-----|------0-------0-|
|------2-------2-|------2-------2-|------1-------1-|----------1-----|
|--0-------------|--1-------------|--2-------------|----------------|
|----------------|----------------|----------------|----------------|
|----------------|----------------|----------------|----------------|

|-----------0----|------------0---|----------------|----------------|
|-------2------2-|--------0------0|----------3-----|----------2-----|
|2---------------|---1------------|------2-------2-|------2-------2-|
|----------------|----------------|--4-------------|--2-------------|
|----------------|----------------|----------------|----------------|
|----------------|----------------|----------------|----------------|

|----------2-----|----------0-----|----------0-----|----------------|
|----------------|----------------|--------------3-|----------2-----|
|------2-------2-|------2-------2-|------1---------|------2-------2-|
|--0-------------|----------------|----------------|----------------|
|----------------|--4-------------|--2-------------|--0-------------|
|----------------|----------------|----------------|----------------|

|----------------|----------------|----------------|----------------|
|----------0-----|----------2-----|----------3-----|----------0-----|
|------1-------1-|------2-------2-|----------------|------1-------1-|
|--2-------------|----------------|------4-------4-|----------------|
|----------------|--0-------------|--2-------------|----------------|
|----------------|----------------|----------------|--0-------------|

|----------------|----------0-----|----------------|----------0-----|
|----------2-----|--------------3-|----------2-----|------0-------0-|
|------2-------2-|------4---------|------2-------2-|--1-------------|
|----------------|--0-------------|--2-------------|----------------|
|--0-------------|----------------|----------------|----------------|
|----------------|----------------|----------------|----------------|

|----------0-----|----------0-----|----------5-----|----------4-----|
|------2-------2-|------0-------0-|----------------|----------------|
|--2-------------|--1-------------|------2-------2-|------2-------2-|
|----------------|----------------|--4-------------|--2-------------|
|----------------|----------------|----------------|----------------|
|----------------|----------------|----------------|----------------|

|----------2-----|----------0-----|----------0-----|----------------|
|----------------|----------------|--------------3-|------2---------|
|------2-------2-|------2-------2-|------1---------|--------------2-|
|--0-------------|----------------|----------------|----------2-----|
|----------------|--4-------------|--2-------------|--0-------------|
|----------------|----------------|----------------|----------------|

|----------------|----------2-----|----------0-----|----------------|
|----------0-----|----------------|----------------|----------3-----|
|------2-------2-|------1-------1-|------2-------2-|------4-------4-|
|--1-------------|--0-------------|----------------|--0-------------|
|----------------|----------------|--4-------------|----------------|
|----------------|----------------|----------------|----------------|

|----------------|----------------|----------------|----------------|
|----------2-----|----------0-----|----------------|----------------|
|------2-------2-|------1-------1-|------2---------|----------------|
|--2-------------|----------------|----------2-----|----------------|
|----------------|----------------|--0-----------4-|--0-------------|
|----------------|--0-------------|----------------|----------------|

Ya después de todo el rollo pedirles de favor si tienen dudas escríbanme 
a gogoladze15@
Suggest correction
Give kudos to tab author, rate the tab!
1 2 3 4 5
comments
print report bad tab
guest
You may want to rate the tab now too:
select rating
Wanna post a correction for this tab? Suggest correction