Oops, an error
Loading. Please wait.

Oración Por Todos Tab

13 views 1 this week
no commentswrite comment
1 2 3 4 5
3 more votes to show rating
add to favorites
launch autoscroll
font size
0
reset
how to read this tab
guitar tuner
×
Best way to learn
"Oración Por Todos"
Autoscroll
slow
fast
+/-
esc
set tempo
stop
ORACION POR TODOS
AGUSTION BARRIOS M.
TRANSCRIPCION: SERGIO LOPEZ

E||----5-----5-----5----|-5--8--8-----8--8--|----9--6--9------9-----9-|
B||-5-----6-----5-----5-|----------9--------|-8-----------10-----8----|
G||----5-----5-----5----|----5--5-----5--5--|----9-----9------9-----9-|
D||---------------------|-------------------|-------------------------|
A||---------------------|-------------------|-0-----------------------|
E||-5-------------------|-5-----------------|-------------------------|


-3--5--5-----5--5--|----3--1--3--0--3-----1-|----0--0-----0--0---|
----3--3--6--3--3--|-3--0-----0-----0--3----|-3--------1---------|
-------------------|----------------------0-|----0--0-----0--0---|
-------------------|------------------------|--------------------|
-5-----------------|-------------0-----2----|-3------------------|
-------------------|-3----------------------|--------------------|


-------------5--8--7--8-|-5--7--7--4--7--7--|----0-----0-----0-----0--|
----6-----6-------------|-------------------|-1-----0-----1-----3-----|
-------7--------8-----8-|----7--7-----7--7--|----2-----2-----2-----2--|
-9--7-------------------|-------------------|-------------------------|
-5--------8--8----------|-7-----------------|-0-----------------------|
------------------------|-------------------|-------------------------|


------------------|-------------5--5---|----4--4-----4-----4--|
----3--3--0--3--3-|-5--5--5--4---------|-5--------------------|
-2----------------|----2--2-----4--4---|----4--4-----4-----4--|
----3--3-----3--3-|--------------------|-2--------2-----------|
-2----------------|----------2---------|----------------------|
------------------|-5------------------|----------------0-----|


----9--6--9------9------9-------|-0--3--3-----1--1-|----------------0--|
-8-----------10-----10----------|----------3-------|----0-----0--1-----|
----9-----9------9------9--6--9-|----2--2-----2--2-|-2-----2--------2--|
------------------------------8-|-0--------3-------|-0--3--1--4--2-----|
--------------------------------|------------------|-------------------|
--------------------9-----------|------------------|-------------------|


----0----------------|----------5--5---5---5--|---5--5---5-3-5---|
-0--------1--1-----1-|----1-------------------|-6-3--3-5-3---3---|
----1-----2--2-----2-|----2--5----------------|------------------|
----0----------------|----------5--5---5---5--|------------------|
-------0--------2----|-3-------------2---3----|-5----------------|
-0-------------------|-------5----------------|------------------|


---0--0-----1--1--|-0--3--3---3---3----|---5--5---7--5--8---|
-1-------3--0--0--|----1--1---1---1----|-6------8-5-----4---|
---2--2-----------|--------------------|---7--7-------------|
------------------|--------------------|--------------------|
------------------|---------3----------|-5-----------8------|
-2-------1--------|-0-----------0------|--------------------|


-7---10--10-8--10-7-10-|---5---5---7---7----|-4-7--7---7---7---|
-----------------------|-5---6---7-4-8-4----|---5--5---5---5---|
-----10--10----10---10-|---5---5------------|------------------|
-----------------------|--------------------|------------------|
-10---------11---------|--------------------|--------7---------|
-----------------------|-5-------7----------|-0----------0-----|


-5-8--8---8-5-8---|---5--5---5---5---|-5-8--8-7-8-5-8---|
---5--5-9-5---5---|-6-3--3-------3---|------------------|
------------------|----------5-------|---8--8---8---8---|
------------------|--------2---3-----|------------------|
------------------|-5----------------|-9----------------|
-5----------------|------------------|------------------|


-5-8--8---8--8----|---5--5----------|---0--0---0--0---|
---5--5-8-5--5----|-6-3--3---6-3-6--|-3------1--------|
------------------|--------4-2---2--|---2--2---2--2---|
-5----------------|-----------------|-2---------------|
------------------|-5------2--------|-----------------|
------------------|-----------------|-----------------|


---2--2-----------|-------5---4---3--|---2---2---0------------0--|
--------1-0---0---|-----4---5--------|-3---0---1-----0-------0---|
-2-2--2-----2-----|---4---4---4-5-2--|---2---0---0---2------0----|
-1--------0---0---|-6-------2-----2--|-0---------2-1-------2-----|
------------3-----|-----2------------|---------3-----2----2------|
------------------|-0-----------5----|-----3-------2-----0-------|

DUDAS O PETICIONES A MI MAIL

CHAO!!!
Suggest correction
Give kudos to tab author, rate the tab!
1 2 3 4 5
comments
print report bad tab
guest
You may want to rate the tab now too:
select rating
Wanna post a correction for this tab? Suggest correction