Oops, an error
Loading. Please wait.

Pachelbel - Canon Tab

218 views 1 this week
no commentswrite comment
1 2 3 4 5
3 more votes to show rating
add to favorites
launch autoscroll
font size
0
reset
how to read this tab
guitar tuner
Autoscroll
slow
fast
+/-
esc
set tempo
stop
Help us to improve Ultimate-Guitar.com Take our survey!
×
Esta es una composición clásica donde las haya.
Ha sido y es de las más utilizadas para -sobre su base-
otros artistas han creado cientos de canciones.
Es una pieza maravillosa.
Consta de 4 diferentes voces (para guitarra)
Las pondré por separado.
Esta transcripción tiene una particularidad, la he pasado toda
a DO (C) El motivo es que si la quieren tocar principiantes de
guitarra, el acompañamiento original (en RE -D-) lleva 4 acordes
con cejilla.
En cambio, en DO podemos sacarla con un acorde con cejilla
En fin; espero que os guste y os sirva:

CANON PACHELBEL  VOZ 1ª


1
|-----------------|-----------------|-----------------|-----------------|
|-----------------|-----------------|-----------------|-----------------|
|-----------------|-----------------|-----------------|-----------------|
|-----------------|-----------------|-----------------|-----------------|
|-----------------|-----------------|-----------------|-----------------|
|-----------------|-----------------|-----------------|-----------------|

1
|-----------------|-----------------|-----------------|-----------------|
|-----------------|-----------------|-----------------|-----------------|
|-----------------|-----------------|-----------------|-----------------|
|-----------------|-----------------|-----------------|-----------------|
|-----------------|-----------------|-----------------|-----------------|
|-----------------|-----------------|-----------------|-----------------|

2ª
|0----------------|-----------------|-----------------|-----------------|
|-----------------|3----------------|1----------------|0----------------|
|-----------------|-----------------|-----------------|-----------------|
|-----------------|-----------------|-----------------|-----------------|
|-----------------|-----------------|-----------------|-----------------|
|-----------------|-----------------|-----------------|-----------------|

2
|-----------------|-----------------|-----------------|-----------------|
|-----------------|-----------------|-----------------|0----------------|
|2----------------|0----------------|2----------------|-----------------|
|-----------------|-----------------|-----------------|-----------------|
|-----------------|-----------------|-----------------|-----------------|
|-----------------|-----------------|-----------------|-----------------|

3ª
|-----------------|-----------------|-----------------|-----------------|
|1----------------|-----------------|-----------------|-----------------|
|-----------------|0----------------|-2---------------|-----------------|
|-----------------|-----------------|-----------------|2----------------|
|-----------------|-----------------|-----------------|-----------------|
|-----------------|-----------------|-----------------|-----------------|

3e
|-----------------|-----------------|-----------------|-----------------|
|-----------------|-----------------|-----------------|-----------------|
|-----------------|-----------------|-----------------|0----------------|
|3----------------|-----------------|3----------------|-----------------|
|-----------------|3----------------|-----------------|-----------------|
|-----------------|-----------------|-----------------|-----------------|

4ª
|-----------------|-----------------|-----------------|-----------------|
|-----------------|-----------------|-----------------|-----------------|
|-----------------|0----------------|-----------------|-----------------|
|-------2---------|--------3--------|2----------------|2-------0--------|
|3----------------|-----------------|--------3--------|-----------------|
|-----------------|-----------------|-----------------|-----------------|

4
|-----------------|-----------------|-----------------|-----------------|
|-----------------|-----------------|-----------------|-----------------|
|-----------------|-------0---------|-------2---------|0----------------|
|-----------------|-----------------|3----------------|-------3---------|
|3------0---------|3----------------|-----------------|-----------------|
|-----------------|-----------------|-----------------|-----------------|


5ª
|-----------------|-----------------|-----------------|3----------------|
|-----------------|-------0---------|1------0---------|-----------------|
|-----------------|-----------------|-----------------|-------0---------|
|2----------------|0----------------|-----------------|-----------------|
|-------3---------|-----------------|-----------------|-----------------|
|-----------------|-----------------|-----------------|-----------------|

5
|-----------------|-----------------|-----------------|-----------------|
|-----------------|-----------------|--------1--------|1------0---------|
|2----------------|0----------------|-----------------|-----------------|
|-------3---------|-------2---------|-----------------|-----------------|
|-----------------|-----------------|3----------------|-----------------|
|-----------------|-----------------|-----------------|-----------------|


6ª
|-----------------|-----------------|-----------------|-----0----3----5-|
|1----0----1------|-----------------|-----1----0------|0----------------|
|-----------------|-----0-----------|---------------2-|-----------------|
|-----------------|----------0----2-|-----------------|-----------------|
|---------------3-|2----------------|3----------------|-----------------|
|-----------------|-----------------|-----------------|-----------------|

6
|1----0---------1-|0----------------|-----------------|-----------------|
|----------3------|-----3----1----0-|-----------------|-----------------|
|-----------------|-----------------|2----0-----------|-----------------|
|-----------------|-----------------|----------3----2-|0----3----2----0-|
|-----------------|-----------------|-----------------|-----------------|
|-----------------|-----------------|-----------------|-----------------|

7ª
|-----------------|-----------------|-----------------|-----------------|
|-----------------|-----------------|-----------------|-----------------|
|-----------------|0---------0------|-----2----0------|0----------------|
|-----0----2----3-|-----0---------3-|2--------------3-|-----3----2----0-|
|3----------------|-----------------|-----------------|-----------------|
|-----------------|-----------------|-----------------|-----------------|

7
|-----------------|-----------------|-----------------|-----------------|
|---------------0-|1----0-----------|-----------------|-----------------|
|----------2------|----------2----0-|---------------2-|0----2----0------|
|-----------------|-----------------|3----2----0------|---------------3-|
|3----0-----------|-----------------|-----------------|-----------------|
|-----------------|-----------------|-----------------|-----------------|


8
|-------------0---|-----------------|-----------------|0----------------|
|-----------------|-3---------------|---1-------------|-----------------|
|-----------------|-----------------|-----------------|-----------------|
|2----------------|-----------------|-----------------|-----------------|
|-----------------|-----------------|-----------------|-----------------|
|-----------------|-----------------|-----------------|-----------------|

8
|5----------------|3----------------|5----------------|7----------------|
|-----------------|-----------------|-----------------|-----------------|
|-----------------|-----------------|-----------------|-----------------|
|-----------------|-----------------|-----------------|-----------------|
|-----------------|-----------------|-----------------|-----------------|
|-----------------|-----------------|-----------------|-----------------|


9ª
|8----------------|-----------------|-----------------|-----------------|
|-------------1---|-0---------------|-----------------|1----------------|
|-----------------|-----------------|---2-------------|-----------------|
|-----------------|-----------------|-----------------|-----------------|
|-----------------|-----------------|-----------------|-----------------|
|-----------------|-----------------|-----------------|-----------------|

9
|-----------------|-----------------|--------1--------|--------3--------|
|1----------------|-------1---------|1----------------|3----------------|
|-----------------|-----------------|-----------------|-----------------|
|-----------------|-----------------|-----------------|-----------------|
|-----------------|-----------------|-----------------|-----------------|
|-----------------|-----------------|-----------------|-----------------|


10ª
|3----0-1-3---0-1-|3-----------0-1--|0--------0-------|-----------------|
|-----------------|------0-1-3------|-----1-3---------|-----------------|
|-----------------|--0-2------------|-----------------|0-2-0---0-----0--|
|-----------------|-----------------|-------------2-3-|------3---2-3----|
|-----------------|-----------------|-----------------|-----------------|
|-----------------|-----------------|-----------------|-----------------|

10
|-----------------|-----------------|-----------------|----------0-1-3--|
|-----------------|-----------------|-------------0-1-|----0-1-3--------|
|-----2-0---------|------------0-2--|-----2-0-2-------|0-2--------------|
|3--------3---2-0-|2-0---0-2-3------|3----------------|-----------------|
|-----------------|----3------------|-----------------|-----------------|
|-----------------|-----------------|-----------------|-----------------|


11ª
|0--------0-------|--------0--------|-----------------|-----------------|
|-----1-3-----3-1-|3-0-1-3---3-1-0--|1------0-1-------|----------1-0-1--|
|-----------------|-----------------|-----2-----------|-----------------|
|-----------------|-----------------|---------------0-|2-3-2-0-2--------|
|-----------------|-----------------|-------------3---|-----------------|
|-----------------|-----------------|-----------------|-----------------|

11
|-----------------|-----------------|-----------------|-----------------|
|-----1-0---------|------------0-1--|-----1-0-1---0---|0-1-3-1-0-1---0--|
|2--------2---0---|0-------0-2------|2--------------2-|------------2----|
|---------------3-|--3-2-3----------|-----------------|-----------------|
|-----------------|-----------------|-----------------|-----------------|
|-----------------|-----------------|-----------------|-----------------|


12ª
|-----------------|-----------------|-----------------|-----------------|
|1----------------|0----------------|-----------------|1----------------|
|-----------------|-----------------|2----------------|-----------------|
|-----------------|-----------------|-----------------|-----------------|
|-----------------|-----------------|-----------------|-----------------|
|-----------------|-----------------|-----------------|-----------------|

12
|-----------------|-----------------|-----------------|-----------------|
|-----------------|-----------------|-----------------|-----------------|
|-----------------|-----------------|-----------------|-----------------|
|-----------------|-----------------|-----------------|-----------------|
|3----------------|3----------------|3----------------|2----------------|
|-----------------|-----------------|-----------------|-----------------|


13ª
|-----------------|-----------------|-----------------|-----------------|
|-----------------|-----------------|-----------------|-----------------|
|-------0---------|-------0---------|-----------------|--------0--------|
|-----------------|-----------------|-------2---------|-----------------|
|-----------------|-----------------|-----------------|-----------------|
|-----------------|-----------------|-----------------|-----------------|

13e
|-----------------|-----------------|-----------------|-----------------|
|-----------------|-----------------|-----------------|--------3--------|
|-----------------|-----------------|-----------------|-----------------|
|-----------------|-----------------|-----------------|-----------------|
|-------3---------|--------2--------|--------3--------|-----------------|
|-----------------|-----------------|-----------------|-----------------|


14ª
|0----------------|----------0------|-----------------|-----------------|
|-----------------|-----3---------3-|1----------------|-----------------|
|-----------------|-----------------|---------------2-|0----------------|
|-----2----3----2-|0----------------|-----2-----------|-----------------|
|-----------------|-----------------|-----------3-----|-----------------|
|-----------------|-----------------|-----------------|-----3----1----3-|

14
|-----------------|-----------------|-----------------|-----------------|
|----------0------|-----------------|-----------------|0----------------|
|-----2---------2-|0----------------|-----2----0----2-|-----------------|
|-----------------|-----------------|-----------------|-----------------|
|0----------------|-----------------|0----------------|-----2----0----2-|
|-----------------|-----3----1----3-|-----------------|-----------------|


15ª
|-----------------|-----------------|-----------------|-----------------|
|-----1----3------|-----------------|-----------------|0----------------|
|---------------1-|0----------------|-----2----0----2-|-----------------|
|-----------------|-----------------|-----------------|----------2----0-|
|3----------------|-----2----3----2-|0----------------|-----2-----------|
|-----------------|-----------------|-----------------|-----------------|

15e
|---------------1-|0--------------0-|-----1----0----1-|-----------------|
|-----1----3------|-----------------|1----------------|3----------------|
|-----------------|----------0------|-----------------|-----0---------0-|
|-----------------|-----2-----------|-----------------|----------3------|
|3----------------|-----------------|-----------------|-----------------|
|-----------------|-----------------|-----------------|-----------------|


16ª
|-----------------|-----------------|-----------------|-----------------|
|-----------------|-----------------|-----------------|-----------------|
|-----0----0----0-|0----0----0----0-|-----------------|----------0----0-|
|2----------------|-----------------|2----2----2----2-|2----2-----------|
|-----------------|-----------------|-----------------|-----------------|
|-----------------|-----------------|-----------------|-----------------|

16e
|-----------------|-----------------|-----------------|-----------------|
|---------------1-|1----1----1----1-|1----1-----------|----------3----0-|
|-----------------|-----------------|----------2----2-|0----0-----------|
|3----3----3------|-----------------|-----------------|-----------------|
|-----------------|-----------------|-----------------|-----------------|
|-----------------|-----------------|-----------------|-----------------|


17ª
|-----0----0----0-|-----------------|-----------------|3----3----3----3-|
|-----------------|3----3----3----3-|1----1----1----1-|-----------------|
|0----------------|-----------------|-----------------|-----------------|
|-----------------|-----------------|-----------------|-----------------|
|-----------------|-----------------|-----------------|-----------------|
|-----------------|-----------------|-----------------|-----------------|

17e
|5----5----5----5-|3----3----3----3-|5----5----5----5-|7----------------|
|-----------------|-----------------|-----------------|-----0----0----0-|
|-----------------|-----------------|-----------------|-----------------|
|-----------------|-----------------|-----------------|-----------------|
|-----------------|-----------------|-----------------|-----------------|
|-----------------|-----------------|-----------------|-----------------|


18ª
|-----------------|-----------------|-----------------|-----------------|
|1----------------|-----0--1--3---0-|-----------------|-----------------|
|-----------------|-----------------|2----------------|----0------------|
|--------0--2-----|-----------------|-----------------|-------3--2----0-|
|-----3---------3-|2----------------|-----0--2--3---0-|2----------------|
|-----------------|-----------------|-----------------|-----------------|

18e
|-----------------|-----------------|-----------------|-----------------|
|-----------------|-----------------|-----------------|-----------------|
|-----------------|--------------0--|----2--0---------|----0------------|
|----3--2--0---3--|2------0--2------|3---------3---2--|0------3--2---0--|
|3----------------|----3------------|-----------------|-----------------|
|-----------------|-----------------|-----------------|-----------------|


19ª
|-----------------|-----------------|----------0------|0---0------------|
|----1--0--1------|----------0------|----1--3------1--|-------3--1---0--|
|-----------------|0---0--2------0--|-----------------|-----------------|
|2-------------2--|-----------------|2----------------|-----------------|
|-----------------|-----------------|-----------------|-----------------|
|-----------------|-----------------|-----------------|-----------------|

19e
|-----------------|----0---------0--|1----------------|-----------------|
|--------------0--|1------3--1------|----1--0---------|-----------------|
|2---2--0--2------|-----------------|----------2---2--|0--------0----0--|
|-----------------|-----------------|-----------------|-----0-----------|
|-----------------|-----------------|-----------------|-----------------|
|-----------------|-----------------|-----------------|-----------------|


20ª
|-----------------|-----------------|-----------------|-----------------|
|-----------------|-----------------|-----------------|-----------------|
|0----------------|-----0-----------|-----------------|-----------0-----|
|-----------------|-----------------|-----------------|-----------------|
|-----------------|-----------------|3----------------|-----------------|
|-----------------|-----------------|-----------------|-----------------|

20e
|-----------------|-----------------|-----------------|-----------------|
|-----------------|-----------------|-----------------|-----------------|
|-----------------|0----------------|-----------------|-----------------|
|3----------------|-----------------|3----------------|-----------------|
|-----------------|-----------------|-----------3-----|3-------------2--|
|-----------------|-----------------|-----------------|-----------------|


21ª
|-----------------|-----------------|-----------------|-----------------|
|----------1------|0----------------|-----------------|-----------------|
|-----------------|-----------------|2----------------|0----------------|
|-----------------|-----------------|-----------------|-----------------|
|3----------------|-----------------|-----------------|-----------------|
|-----------------|-----------------|-----------------|-----------------|

21e
|-----------------|-----------------|-----------------|-----------------|
|-----------------|-----------------|-----------------|-----------------|
|-----------------|-----------------|2----------------|-----------------|
|-------------0---|2----------------|-----------------|0-------0--------|
|3----------------|-----------------|-----------------|-----------------|
|-----------------|-----------------|-----------------|-----------------|


22ª
|-------------0---|0----1----0------|-----------------|-----------------|
|-----------------|---------------3-|1-------------1--|1----3----1----0-|
|-----------------|-----------------|-----------------|-----------------|
|2----------------|-----------------|-----------------|-----------------|
|-----------------|-----------------|-----------------|-----------------|
|-----------------|-----------------|-----------------|-----------------|

22e
|-----------------|-----------------|-----------------|-----------------|
|-----------------|1----------------|1----0---------0-|-----------------|
|2----------------|-----------------|----------2------|0------------0---|
|-----------------|-----------------|-----------------|-----------------|
|-----------------|-----------------|-----------------|-----------------|
|-----------------|-----------------|-----------------|-----------------|


23ª
|---------------3-|3----5----3----1-|-0-------------0-|0----1----0------|
|-----------------|-----------------|-----------------|---------------3-|
|0----------------|-----------------|-----------------|-----------------|
|-----------------|-----------------|-----------------|-----------------|
|-----------------|-----------------|-----------------|-----------------|
|-----------------|-----------------|-----------------|-----------------|

23e
|-----------------|-----------------|-----------------|-----------------|
|1----0---------0-|-----------------|--------------1--|-0------------0--|
|----------2------|-0------------0--|-----------------|-----------------|
|-----------------|-----------------|-3---------------|-----------------|
|-----------------|-----------------|-----------------|-----------------|
|-----------------|-----------------|-----------------|-----------------|


24ª
|-----------------|-----------------|-----------------|-----------------|
|-1------1--------|----0------------|-----------------|-----------------|
|-----------------|-----------------|----2------------|----0------------|
|-----------------|-----------------|-----------------|-----------------|
|-----------------|-----------------|-----------------|-----------------|
|-----------------|-----------------|-----------------|-----------------|

24e
|-----------------|-----------------|-----------------|-----------------|
|-----------------|-----------------|-----------------|-----------------|
|0----------------|-----------------|-----------------|-----------------|
|-----------3-----|------2----------|2----------------|-0---0-----------|
|-----------------|-----------------|-----------------|-----------------|
|-----------------|-----------------|-----------------|-----------------|


25ª
|------------0----|-----------------|-------------8---|--8--------------|
|-----------------|------------3----|----1------------|-----------------|
|-----------------|-----------------|-----------------|-----------------|
|-2---------------|-----------------|-----------------|-----------------|
|-----------------|-----------------|-----------------|-----------------|
|-----------------|-----------------|-----------------|-----------------|

25e
|--5--------------|--8---3----------|---5-------------|--3--------------|
|-----------------|-----------------|-----------------|-----------------|
|-----------------|-----------------|-----------------|-----------------|
|-----------------|-----------------|-----------------|-----------------|
|-----------------|-----------------|-----------------|-----------------|
|-----------------|-----------------|-----------------|-----------------|


26ª
|-3---------------|-----------------|-----------------|0----------------|
|-----------------|-----------------|-----------------|----3------------|
|-----------------|-0---------------|-----------------|-----------------|
|-----------------|-----3-----------|-2---------------|-----------------|
|-----------------|-----------------|-----------------|-----------------|
|-----------------|-----------------|-----------------|-----------------|

26e
|-----------------|-----------------|-----------------|-----------------|
|1----------------|-------1---------|1----------------|---0-------------|
|-----------------|-----------------|-----------------|-----------------|
|-----------------|-----------------|-----------------|-----------------|
|-----------------|-----------------|-----------------|-----------------|
|-----------------|-----------------|-----------------|-----------------|


27ª
|-----------------|-----------------|-----------------|-----------------|
|1----------------|0----------------|-----------------|-----------------|
|-----------------|-----------------|2----------------|----------0------|
|-----------------|-----------------|-----------------|-----------------|
|------------3----|------------2----|------------0----|-----------------|
|-----------------|-----------------|-----------------|3----------------|

27e
|-----------1-----|-0---------------|-----------------|-----------------|
|-----------------|-----------------|-----------------|----------3------|
|-----------------|-----------------|-----------2-----|-----------------|
|-3---------------|------------2----|0----------------|0----------------|
|-----------------|-----------------|-----------------|-----------------|
|-----------------|-----------------|-----------------|-----------------|


28ª
|0----------------|-----------------|-----------------|-----------------|
|-----------------|----------3------|1----------------|----------0------|
|-----------------|-----------------|-----------------|-----------------|
|-----------2-----|0----------------|-----------------|-----------------|
|-----------------|-----------------|----------3------|2----------------|
|-----------------|-----------------|-----------------|-----------------|

28e
|-----------5-----|3----------------|-----------------|-----------------|
|-----------------|-----------------|-----------3-----|-----------------|
|2----------------|----------0------|-----------------|0---------0------|
|-----------------|-----------------|3----------------|-----------------|
|-----------------|-----------------|-----------------|-----------------|
|-----------------|-----------------|-----------------|-----------------|


29ª
|-----------------|
|-----------------|
|0----------------|
|-----------------|
|-----------------|
|-----------------|

Si tenéis alguna duda, escribidme: canalc@
Suggest correction
Give kudos to tab author, rate the tab!
1 2 3 4 5
comments
print report bad tab
guest
You may want to rate the tab now too:
select rating
Wanna post a correction for this tab? Suggest correction