Oops, an error
Loading. Please wait.

Pachelbel - Canon (2A Voz) Tab

82 views 1 this week
no commentswrite comment
1 2 3 4 5
3 more votes to show rating
add to favorites
×
Save as Personal and add changes to this tab that will be seen only by you. Learn more ›
×
You can save this tab as Personal to edit and correct it or add notes. All changes will be seen only by you. Learn more »
save as personal
new!
launch autoscroll
font size
0
reset
how to read this tab
guitar tuner
Autoscroll
slow
fast
+/-
esc
set tempo
stop
Esta es una composición clásica donde las haya.
Ha sido y es de las más utilizadas para -sobre su base-
otros artistas han creado cientos de canciones.
Es una pieza maravillosa.
Consta de 4 diferentes voces (para guitarra)
Las pondré por separado.
Esta transcripción tiene una particularidad, la he pasado toda
a DO (C) El motivo es que si la quieren tocar principiantes de
guitarra, el acompañamiento original (en RE -D-) lleva 4 acordes
con cejilla.
En cambio, en DO podemos sacarla con un acorde con cejilla
En fin; espero que os guste y os sirva:

CANON PACHELBEL VOZ 2ª

1ª
|-----------------|-----------------|-----------------|-----------------|
|-----------------|-----------------|-----------------|-----------------|
|-----------------|-----------------|-----------------|-----------------|
|-----------------|-----------------|-----------------|-----------------|
|-----------------|-----------------|-----------------|-----------------|
|-----------------|-----------------|-----------------|-----------------|

1e
|-----------------|-----------------|-----------------|-----------------|
|-----------------|-----------------|-----------------|-----------------|
|-----------------|-----------------|-----------------|-----------------|
|-----------------|-----------------|-----------------|-----------------|
|-----------------|-----------------|-----------------|-----------------|
|-----------------|-----------------|-----------------|-----------------|


2ª
|-----------------|-----------------|-----------------|-----------------|
|-----------------|-----------------|-----------------|-----------------|
|-----------------|-----------------|-----------------|-----------------|
|-----------------|-----------------|-----------------|-----------------|
|-----------------|-----------------|-----------------|-----------------|
|-----------------|-----------------|-----------------|-----------------|

2e
|-----------------|-----------------|-----------------|-----------------|
|-----------------|-----------------|-----------------|-----------------|
|-----------------|-----------------|-----------------|-----------------|
|-----------------|-----------------|-----------------|-----------------|
|-----------------|-----------------|-----------------|-----------------|
|-----------------|-----------------|-----------------|-----------------|


3ª
|0----------------|-----------------|-----------------|-----------------|
|-----------------|3----------------|1----------------|0----------------|
|-----------------|-----------------|-----------------|-----------------|
|-----------------|-----------------|-----------------|-----------------|
|-----------------|-----------------|-----------------|-----------------|
|-----------------|-----------------|-----------------|-----------------|

3e
|-----------------|-----------------|-----------------|-----------------|
|-----------------|-----------------|-----------------|0----------------|
|2----------------|0----------------|2----------------|-----------------|
|-----------------|-----------------|-----------------|-----------------|
|-----------------|-----------------|-----------------|-----------------|
|-----------------|-----------------|-----------------|-----------------|


4ª
|-----------------|-----------------|-----------------|-----------------|
|1----------------|0----------------|-----------------|-----------------|
|-----------------|-----------------|2----------------|0----------------|
|-----------------|-----------------|-----------------|-----------------|
|-----------------|-----------------|-----------------|-----------------|
|-----------------|-----------------|-----------------|-----------------|

4e
|-----------------|-----------------|-----------------|-----------------|
|-----------------|-----------------|-----------------|-----------------|
|-----------------|-----------------|-----------------|-----------------|
|3----------------|2----------------|3----------------|0----------------|
|-----------------|-----------------|-----------------|-----------------|
|-----------------|-----------------|-----------------|-----------------|


5ª
|-----------------|-----------------|-----------------|-----------------|
|-----------------|-----------------|-----------------|-----------------|
|-----------------|0----------------|-----------------|-----------------|
|--------2--------|--------3--------|2----------------|2-------0--------|
|3----------------|-----------------|---------3-------|-----------------|
|-----------------|-----------------|-----------------|-----------------|

5e
|-----------------|-----------------|-----------------|-----------------|
|-----------------|-----------------|-----------------|-----------------|
|-----------------|--------0--------|-------2---------|0----------------|
|-----------------|-----------------|3----------------|-------3---------|
|3-------0--------|3----------------|-----------------|-----------------|
|-----------------|-----------------|-----------------|-----------------|


6ª
|-----------------|-----------------|--------0--------|3----------------|
|-----------------|--------0--------|1----------------|-----------------|
|-----------------|-----------------|-----------------|-------0---------|
|2----------------|0----------------|-----------------|-----------------|
|--------3--------|-----------------|-----------------|-----------------|
|-----------------|-----------------|-----------------|-----------------|

6e
|-----------------|-----------------|-----------------|-----------------|
|-----------------|-----------------|-------1---------|1-------0--------|
|2----------------|0----------------|-----------------|-----------------|
|-------3---------|-------2---------|-----------------|-----------------|
|-----------------|-----------------|3----------------|-----------------|
|-----------------|-----------------|-----------------|-----------------|


7ª
|-----------------|-----------------|-----------------|-----0----3----5-|
|1----0----1------|-----------------|-----1----0------|0----------------|
|-----------------|-----0-----------|---------------2-|-----------------|
|-----------------|----------0----2-|-----------------|-----------------|
|---------------3-|0----------------|3----------------|-----------------|
|-----------------|-----------------|-----------------|-----------------|

7e
|1----0---------1-|0----------------|-----------------|-----------------|
|----------3------|-----3----1----0-|-----------------|-----------------|
|-----------------|-----------------|2----0-----------|-----------------|
|-----------------|-----------------|----------3----2-|0----3----2----0-|
|-----------------|-----------------|-----------------|-----------------|
|-----------------|-----------------|-----------------|-----------------|


8ª
|-----------------|-----------------|-----------------|-----------------|
|-----------------|-----------------|-----------------|-----------------|
|-----------------|0---------0------|-----2----0------|0----------------|
|-----0----2----3-|-----0---------3-|2--------------3-|-----3----2----2-|
|3----------------|-----------------|-----------------|-----------------|
|-----------------|-----------------|-----------------|-----------------|

8e
|-----------------|-----------------|-----------------|-----------------|
|---------------0-|1----0-----------|-----------------|-----------------|
|----------2------|----------2----0-|---------------2-|0----2----0------|
|-----------------|-----------------|3----2----0------|---------------3-|
|3----0-----------|-----------------|-----------------|-----------------|
|-----------------|-----------------|-----------------|-----------------|


9ª
|----------0------|-----------------|-----------------|-0---------------|
|-----------------|-3---------------|-------------1---|-----------------|
|-----------------|-----------------|-----------------|-----------------|
|2----------------|-----------------|-----------------|-----------------|
|-----------------|-----------------|-----------------|-----------------|
|-----------------|-----------------|-----------------|-----------------|

9e
|5----------------|3----------------|5----------------|7----------------|
|-----------------|-----------------|-----------------|-----------------|
|-----------------|-----------------|-----------------|-----------------|
|-----------------|-----------------|-----------------|-----------------|
|-----------------|-----------------|-----------------|-----------------|
|-----------------|-----------------|-----------------|-----------------|


10ª
|8----------------|-----------------|-----------------|-----------------|
|---------------1-|-------0---------|-----------------|-1---------------|
|-----------------|-----------------|---------------2-|-----------------|
|-----------------|-----------------|-----------------|-----------------|
|-----------------|-----------------|-----------------|-----------------|
|-----------------|-----------------|-----------------|-----------------|

10e
|-----------------|-----------------|----------1------|------------3----|
|1----------------|-------------1---|-1---------------|-3---------------|
|-----------------|-----------------|-----------------|-----------------|
|-----------------|-----------------|-----------------|-----------------|
|-----------------|-----------------|-----------------|-----------------|
|-----------------|-----------------|-----------------|-----------------|


11ª
|3---0-1-3---0-1--|3-----------0-1--|0-------0--------|-----------------|
|-----------------|------0-1-3------|----1-3----------|-----------------|
|-----------------|--0-2------------|-----------------|0-2-0---0-----0--|
|-----------------|-----------------|-------------2-3-|------3---2-3----|
|-----------------|-----------------|-----------------|-----------------|
|-----------------|-----------------|-----------------|-----------------|

11e
|-----------------|-----------------|-----------------|----------0-1-3--|
|-----------------|-----------------|------------0-1--|----0-1-3--------|
|----2-0----------|------------0-2--|----2-0-2--------|0-2--------------|
|3-------3---2-0--|2-0---0-2-3------|3----------------|-----------------|
|-----------------|----3------------|-----------------|-----------------|
|-----------------|-----------------|-----------------|-----------------|


12ª
|0-------0--------|--------0--------|-----------------|-----------------|
|----1-3------3-1-|3-0-1-3---3-1-0--|1------0-1-------|----------1-0-1--|
|-----------------|-----------------|-----2-----------|-----------------|
|-----------------|-----------------|---------------0-|2-3-2-0-2--------|
|-----------------|-----------------|-------------3---|-----------------|
|-----------------|-----------------|-----------------|-----------------|

12e
|-----------------|-----------------|-----------------|-----------------|
|-----1-0---------|------------0-1--|-----1-0-1---0---|0-1-3-1-0-1---0--|
|2--------2---0---|0-------0-2------|2--------------2-|------------2----|
|---------------3-|--3-2-3----------|-----------------|-----------------|
|-----------------|-----------------|-----------------|-----------------|
|-----------------|-----------------|-----------------|-----------------|


13ª
|-----------------|-----------------|-----------------|-----------------|
|1----------------|0----------------|-----------------|1----------------|
|-----------------|-----------------|2----------------|-----------------|
|-----------------|-----------------|-----------------|-----------------|
|-----------------|-----------------|-----------------|-----------------|
|-----------------|-----------------|-----------------|-----------------|

13e
|-----------------|-----------------|-----------------|-----------------|
|-----------------|-----------------|-----------------|-----------------|
|-----------------|-----------------|-----------------|-----------------|
|-----------------|-----------------|-----------------|-----------------|
|3----------------|3----------------|3----------------|2----------------|
|-----------------|-----------------|-----------------|-----------------|


14ª
|-----------------|-----------------|-----------------|-----------------|
|-----------------|-----------------|-----------------|-----------------|
|--------------0--|--------------0--|-----------------|--------------0--|
|-----------------|-----------------|--------------2--|-----------------|
|-----------------|-----------------|-----------------|-----------------|
|-----------------|-----------------|-----------------|-----------------|

14e
|-----------------|-----------------|-----------------|-----------------|
|-----------------|-----------------|-----------------|--------------3--|
|-----------------|-----------------|-----------------|-----------------|
|--------------3--|--------------2--|--------------3--|-----------------|
|-----------------|-----------------|-----------------|-----------------|
|-----------------|-----------------|-----------------|-----------------|


15ª
|0----------------|----------0------|-----------------|-----------------|
|-----------------|-----3---------3-|1----------------|-----------------|
|-----------------|-----------------|---------------2-|0----------------|
|-----2----3----2-|0----------------|-----2-----------|-----------------|
|-----------------|-----------------|----------3------|-----------------|
|-----------------|-----------------|-----------------|-----3----1----3-|

15e
|-----------------|-----------------|-----------------|-----------------|
|----------0------|-----------------|-----------------|0----------------|
|-----2---------2-|0----------------|-----2----0----2-|-----------------|
|-----------------|-----------------|-----------------|-----------------|
|0----------------|-----------------|0----------------|-----2----0----2-|
|-----------------|-----3----1----3-|-----------------|-----------------|


16ª
|-----------------|-----------------|-----------------|-----------------|
|-----1----3----1-|0----------------|-----------------|0----------------|
|-----------------|-----------------|-----2----0----2-|-----------------|
|-----------------|-----------------|-----------------|----------2------|
|3----------------|-----2----3----2-|0----------------|-----2---------0-|
|-----------------|-----------------|-----------------|-----------------|

16e
|---------------1-|0--------------0-|-----1----0----1-|-----------------|
|-----1----3------|-----------------|1----------------|0----------------|
|-----------------|----------0------|-----------------|-----0---------0-|
|-----------------|-----2-----------|-----------------|----------3------|
|3----------------|-----------------|-----------------|-----------------|
|-----------------|-----------------|-----------------|-----------------|


17ª
|-----------------|-----------------|-----------------|-----------------|
|-----------------|-----------------|-----------------|-----------------|
|-----0----0----0-|0----0----0----0-|-----------------|----------0----0-|
|2----------------|-----------------|2----2----2----2-|2----2-----------|
|-----------------|-----------------|-----------------|-----------------|
|-----------------|-----------------|-----------------|-----------------|

17e
|-----------------|-----------------|-----------------|-----------------|
|---------------1-|1----1----1----1-|1----1-----------|----------3----0-|
|-----------------|-----------------|----------2----2-|0----0-----------|
|3----3----3------|-----------------|-----------------|-----------------|
|-----------------|-----------------|-----------------|-----------------|
|-----------------|-----------------|-----------------|-----------------|


18ª
|-----0----0----0-|-----------------|-----------------|3----3----3----3-|
|-----------------|3----3----3----3-|1----1----1----1-|-----------------|
|0----------------|-----------------|-----------------|-----------------|
|-----------------|-----------------|-----------------|-----------------|
|-----------------|-----------------|-----------------|-----------------|
|-----------------|-----------------|-----------------|-----------------|

18e
|5----5----5----5-|3----3----3----3-|5----5----5----5-|7----------------|
|-----------------|-----------------|-----------------|-----0----0----0-|
|-----------------|-----------------|-----------------|-----------------|
|-----------------|-----------------|-----------------|-----------------|
|-----------------|-----------------|-----------------|-----------------|
|-----------------|-----------------|-----------------|-----------------|


19ª
|-----------------|-----------------|-----------------|-----------------|
|1----------------|-----0-1-3----0--|-----------------|-----------------|
|-----------------|-----------------|2----------------|-----0-----------|
|-------0-2-------|-----------------|-----------------|-------3-2----0--|
|-----3--------3--|2----------------|-----0-2-3----0--|2----------------|
|-----------------|-----------------|-----------------|-----------------|

19e
|-----------------|-----------------|-----------------|-----------------|
|-----------------|-----------------|-----------------|-----------------|
|-----------------|--------------0--|-----2-0---------|-----0-----------|
|-----3-2-0----3--|2------0-2-------|3--------3----2--|0------3-2----0--|
|3----------------|-----3-----------|-----------------|-----------------|
|-----------------|-----------------|-----------------|-----------------|


20ª
|-----------------|-----------------|---------0-------|0----0-----------|
|-----1-0-1-------|---------0-------|-----1-3------1--|-------3-1----0--|
|-----------------|0----0-2------0--|-----------------|-----------------|
|2-------------2--|-----------------|2----------------|-----------------|
|-----------------|-----------------|-----------------|-----------------|
|-----------------|-----------------|-----------------|-----------------|

20e
|-----------------|-----0--------0--|1----------------|-----------------|
|--------------0--|1------3-1-------|-----1-0---------|-----------------|
|2----2-0-2-------|-----------------|---------2----2--|0---------0----0-|
|-----------------|-----------------|-----------------|-----0-----------|
|-----------------|-----------------|-----------------|-----------------|
|-----------------|-----------------|-----------------|-----------------|


21ª
|-----------------|-----------------|-----------------|-----------------|
|-----------------|-----------------|-----------------|-----------------|
|0----------------|--------0--------|-----------------|---------------0-|
|-----------------|-----------------|-----------------|-----------------|
|-----------------|-----------------|3----------------|-----------------|
|-----------------|-----------------|-----------------|-----------------|

21e
|-----------------|-----------------|-----------------|-----------------|
|-----------------|-----------------|-----------------|-----------------|
|-----------------|0----------------|-----------------|-----------------|
|3----------------|-----------------|3----------------|-----------------|
|-----------------|-----------------|--------3--------|3-----------2----|
|-----------------|-----------------|-----------------|-----------------|


22ª
|-----------------|-----------------|-----------------|-----------------|
|----------1------|0----------------|-----------------|-----------------|
|-----------------|-----------------|-----2-----------|0----------------|
|-----------------|-----------------|-----------------|-----------------|
|3----------------|-----------------|-----------------|-----------------|
|-----------------|-----------------|-----------------|-----------------|

22e
|-----------------|-----------------|-----------------|-----------------|
|-----------------|-----------------|-----------------|-----------------|
|-----------------|-----------------|2----------------|-----------------|
|----------0------|2----------------|-----------------|0-----------0----|
|3----------------|-----------------|-----------------|-----------------|
|-----------------|-----------------|-----------------|-----------------|


23ª
|---------------0-|0----1----0------|-----------------|-----------------|
|-----------------|---------------3-|1-----------1----|1----3----1----0-|
|-----------------|-----------------|-----------------|-----------------|
|2----------------|-----------------|-----------------|-----------------|
|-----------------|-----------------|-----------------|-----------------|
|-----------------|-----------------|-----------------|-----------------|

23e
|-----------------|-----------------|-----------------|-----------------|
|-----------------|1----------------|1----0---------0-|-----------------|
|2----------------|-----------------|----------2------|0---------0------|
|-----------------|-----------------|-----------------|-----------------|
|-----------------|-----------------|-----------------|-----------------|
|-----------------|-----------------|-----------------|-----------------|


24ª
|--------------3--|3----5----3----1-|0------------0---|0----1----0------|
|-----------------|-----------------|-----------------|---------------3-|
|0----------------|-----------------|-----------------|-----------------|
|-----------------|-----------------|-----------------|-----------------|
|-----------------|-----------------|-----------------|-----------------|
|-----------------|-----------------|-----------------|-----------------|

24e
|-----------------|-----------------|-----------------|-----------------|
|1----0---------0-|-----------------|--------------1--|0------------0---|
|----------2------|0-----------0----|-----------------|-----------------|
|-----------------|-----------------|3----------------|-----------------|
|-----------------|-----------------|-----------------|-----------------|
|-----------------|-----------------|-----------------|-----------------|


25ª
|-----------------|-----------------|-----------------|-----------------|
|1-----------1----|----0------------|-----------------|-----------------|
|-----------------|-----------------|-----2-----------|----------0------|
|-----------------|-----------------|-----------------|-----------------|
|-----------------|-----------------|-----------------|-----------------|
|-----------------|-----------------|-----------------|-----------------|

25e
|-----------------|-----------------|-----------------|-----------------|
|-----------------|-----------------|-----------------|-----------------|
|0----------------|-----------------|-----------------|-----------------|
|------------3----|--2--------------|2----------------|0------0---------|
|-----------------|-----------------|-----------------|-----------------|
|-----------------|-----------------|-----------------|-----------------|


26ª
|------0----------|-----------------|8----------------|7----------------|
|-----------------|3---------1------|-----------------|-----------------|
|-----------------|-----------------|-----------------|-----------------|
|2----------------|-----------------|-----------------|-----------------|
|-----------------|-----------------|-----------------|-----------------|
|-----------------|-----------------|-----------------|-----------------|

26e
|5--------------7-|-------------3---|------5----------|-----------3-----|
|-----------------|-----------------|-----------------|-----------------|
|-----------------|-----------------|-----------------|-----------------|
|-----------------|-----------------|-----------------|-----------------|
|-----------------|-----------------|-----------------|-----------------|
|-----------------|-----------------|-----------------|-----------------|


27ª
|3----------------|-----------------|-----------------|0----------------|
|-----------------|-----------------|-----------------|-------------3---|
|-----------------|0----------------|-----------------|-----------------|
|-----------------|--------------3--|-----------2-----|-----------------|
|-----------------|-----------------|-----------------|-----------------|
|-----------------|-----------------|-----------------|-----------------|

27e
|-----------------|-----------------|-----------------|-----------------|
|1----------------|------------1----|1----------------|0----------------|
|-----------------|-----------------|-----------------|-----------------|
|-----------------|-----------------|-----------------|-----------------|
|-----------------|-----------------|-----------------|-----------------|
|-----------------|-----------------|-----------------|-----------------|


28ª
|-----------------|-----------------|-----------------|-----------------|
|1----------------|-----------0-----|2----------------|-----------------|
|-----------------|-----------------|-----------------|-------------0---|
|-----------------|-----------------|-----------------|-----------------|
|-------------3---|2----------------|-----------0-----|-----------------|
|-----------------|-----------------|-----------------|3----------------|

28e
|----------1------|0----------------|-----------------|-----------------|
|-----------------|-----------------|-----------------|----------3------|
|-----------------|-----------------|----------2------|-----------------|
|3----------------|----------2------|0----------------|0----------------|
|-----------------|-----------------|-----------------|-----------------|
|-----------------|-----------------|-----------------|-----------------|


29ª
|0----------------|
|-----------------|
|-----------------|
|-----------------|
|-----------------|
|-----------------|
Suggest correction
Give kudos to tab author, rate the tab!
1 2 3 4 5
comments
print report bad tab
guest
Wanna post a correction for this tab? Suggest correction