Oops, an error
Loading. Please wait.

Pachelbel - Canon (3A Voz) Chords

120 views 1 this week
no commentswrite comment
1 2 3 4 5
3 more votes to show rating
add to favorites
launch autoscroll
font size
0
reset
transpose
0
reset
display chords
guitar tuner
×
Best way to learn
"Pachelbel - Canon (3a Voz)"
Autoscroll
slow
fast
+/-
esc
set tempo
stop
Esta es una composición clásica donde las haya.
Ha sido y es de las más utilizadas para -sobre su base-
otros artistas han creado cientos de canciones.
Es una pieza maravillosa.
Consta de 4 diferentes voces (para guitarra)
Las pondré por separado.
Esta transcripción tiene una particularidad, la he pasado toda
a DO (C) El motivo es que si la quieren tocar principiantes de
guitarra, el acompañamiento original (en RE -D-) lleva 4 acordes
con cejilla.
En cambio, en DO podemos sacarla con un acorde con cejilla
En fin; espero que os guste y os sirva:

CANON PACHELBEL  VOZ 3ª

1ª
|-----------------|-----------------|-----------------|-----------------|
|-----------------|-----------------|-----------------|-----------------|
|-----------------|-----------------|-----------------|-----------------|
|-----------------|-----------------|-----------------|-----------------|
|-----------------|-----------------|-----------------|-----------------|
|-----------------|-----------------|-----------------|-----------------|

1e
|-----------------|-----------------|-----------------|-----------------|
|-----------------|-----------------|-----------------|-----------------|
|-----------------|-----------------|-----------------|-----------------|
|-----------------|-----------------|-----------------|-----------------|
|-----------------|-----------------|-----------------|-----------------|
|-----------------|-----------------|-----------------|-----------------|


2ª
|-----------------|-----------------|-----------------|-----------------|
|-----------------|-----------------|-----------------|-----------------|
|-----------------|-----------------|-----------------|-----------------|
|-----------------|-----------------|-----------------|-----------------|
|-----------------|-----------------|-----------------|-----------------|
|-----------------|-----------------|-----------------|-----------------|

2e
|-----------------|-----------------|-----------------|-----------------|
|-----------------|-----------------|-----------------|-----------------|
|-----------------|-----------------|-----------------|-----------------|
|-----------------|-----------------|-----------------|-----------------|
|-----------------|-----------------|-----------------|-----------------|
|-----------------|-----------------|-----------------|-----------------|


3ª
|-----------------|-----------------|-----------------|-----------------|
|-----------------|-----------------|-----------------|-----------------|
|-----------------|-----------------|-----------------|-----------------|
|-----------------|-----------------|-----------------|-----------------|
|-----------------|-----------------|-----------------|-----------------|
|-----------------|-----------------|-----------------|-----------------|

3e
|-----------------|-----------------|-----------------|-----------------|
|-----------------|-----------------|-----------------|-----------------|
|-----------------|-----------------|-----------------|-----------------|
|-----------------|-----------------|-----------------|-----------------|
|-----------------|-----------------|-----------------|-----------------|
|-----------------|-----------------|-----------------|-----------------|


4ª
|0----------------|-----------------|-----------------|-----------------|
|-----------------|3----------------|1----------------|0----------------|
|-----------------|-----------------|-----------------|-----------------|
|-----------------|-----------------|-----------------|-----------------|
|-----------------|-----------------|-----------------|-----------------|
|-----------------|-----------------|-----------------|-----------------|

4e
|-----------------|-----------------|-----------------|-----------------|
|-----------------|-----------------|-----------------|0----------------|
|2----------------|0----------------|2----------------|-----------------|
|-----------------|-----------------|-----------------|-----------------|
|-----------------|-----------------|-----------------|-----------------|
|-----------------|-----------------|-----------------|-----------------|


5ª
|-----------------|-----------------|-----------------|-----------------|
|1----------------|0----------------|-----------------|-----------------|
|-----------------|-----------------|2----------------|0----------------|
|-----------------|-----------------|-----------------|-----------------|
|-----------------|-----------------|-----------------|-----------------|
|-----------------|-----------------|-----------------|-----------------|

5e
|-----------------|-----------------|-----------------|-----------------|
|-----------------|-----------------|-----------------|-----------------|
|-----------------|-----------------|-----------------|-----------------|
|3----------------|2----------------|3----------------|0----------------|
|-----------------|-----------------|-----------------|-----------------|
|-----------------|-----------------|-----------------|-----------------|


6ª
|-----------------|-----------------|-----------------|-----------------|
|-----------------|-----------------|-----------------|-----------------|
|-----------------|0----------------|-----------------|-----------------|
|-------2---------|--------3--------|2----------------|2-------0--------|
|3----------------|-----------------|--------3--------|-----------------|
|-----------------|-----------------|-----------------|-----------------|

6e
|-----------------|-----------------|-----------------|-----------------|
|-----------------|-----------------|-----------------|-----------------|
|-----------------|-------0---------|--------2--------|0----------------|
|-----------------|-----------------|3----------------|--------3--------|
|3------0---------|3----------------|-----------------|-----------------|
|-----------------|-----------------|-----------------|-----------------|


7ª
|-----------------|-----------------|--------0--------|3----------------|
|-----------------|-------0---------|1----------------|-----------------|
|-----------------|-----------------|-----------------|-------0---------|
|2----------------|0----------------|-----------------|-----------------|
|-------3---------|-----------------|-----------------|-----------------|
|-----------------|-----------------|-----------------|-----------------|

7e
|-----------------|-----------------|-----------------|-----------------|
|-----------------|-----------------|--------1--------|1----------------|
|2----------------|0----------------|-----------------|--------0--------|
|--------3--------|-------2---------|-----------------|-----------------|
|-----------------|-----------------|3----------------|-----------------|
|-----------------|-----------------|-----------------|-----------------|


8ª
|-----------------|-----------------|-----------------|-----0----3----5-|
|1----0----1------|-----------------|-----1----0------|0----------------|
|-----------------|-----0-----------|---------------2-|-----------------|
|-----------------|----------0----2-|-----------------|-----------------|
|---------------3-|0----------------|3----------------|-----------------|
|-----------------|-----------------|-----------------|-----------------|

8e
|1----0---------1-|0----------------|-----------------|-----------------|
|----------3------|-----3----1----0-|-----------------|-----------------|
|-----------------|-----------------|2----0-----------|-----------------|
|-----------------|-----------------|----------3----2-|0----3----2----0-|
|-----------------|-----------------|-----------------|-----------------|
|-----------------|-----------------|-----------------|-----------------|


9ª
|-----------------|-----------------|-----------------|-----------------|
|-----------------|-----------------|-----------------|-----------------|
|-----------------|0----------0-----|-----2----0------|0----------------|
|-----0----2----3-|-----0---------3-|2--------------3-|-----3----2----0-|
|3----------------|-----------------|-----------------|-----------------|
|-----------------|-----------------|-----------------|-----------------|

9e
|-----------------|-----------------|-----------------|-----------------|
|---------------0-|1----0-----------|-----------------|-----------------|
|-----------2-----|----------2----0-|---------------2-|0----2----0------|
|-----------------|-----------------|3----2----0------|---------------3-|
|3----0-----------|-----------------|-----------------|-----------------|
|-----------------|-----------------|-----------------|-----------------|


10ª
|------------0----|-----------------|-----------------|--0--------------|
|-----------------|--3--------------|--------------1--|-----------------|
|-----------------|-----------------|-----------------|-----------------|
|2----------------|-----------------|-----------------|-----------------|
|-----------------|-----------------|-----------------|-----------------|
|-----------------|-----------------|-----------------|-----------------|

10e
|5----------------|3----------------|5----------------|7----------------|
|-----------------|-----------------|-----------------|-----------------|
|-----------------|-----------------|-----------------|-----------------|
|-----------------|-----------------|-----------------|-----------------|
|-----------------|-----------------|-----------------|-----------------|
|-----------------|-----------------|-----------------|-----------------|


11ª
|8----------------|-----------------|-----------------|-----------------|
|--------------1--|-----0-----------|-----------------|--1--------------|
|-----------------|-----------------|-------------2---|-----------------|
|-----------------|-----------------|-----------------|-----------------|
|-----------------|-----------------|-----------------|-----------------|
|-----------------|-----------------|-----------------|-----------------|

11e
|-----------------|-----------------|------------1----|-------------3---|
|1----------------|------1----------|-1---------------|-3---------------|
|-----------------|-----------------|-----------------|-----------------|
|-----------------|-----------------|-----------------|-----------------|
|-----------------|-----------------|-----------------|-----------------|
|-----------------|-----------------|-----------------|-----------------|


12ª
|3----0-1-3---0-1-|3-----------0-1--|0-------0--------|-----------------|
|-----------------|------0-1-3------|----1-3----------|-----------------|
|-----------------|--0-2------------|-----------------|0-2-0---0-----0--|
|-----------------|-----------------|-------------2-3-|------3---2-3----|
|-----------------|-----------------|-----------------|-----------------|
|-----------------|-----------------|-----------------|-----------------|

12e
|-----------------|-----------------|-----------------|----------0-1-3--|
|-----------------|-----------------|----------0---1--|----0-1-3--------|
|----2-0----------|------------0-2--|----2-0-2--------|0-2--------------|
|3-------3---2-0--|2-0---0-2-3------|3----------------|-----------------|
|-----------------|----3------------|-----------------|-----------------|
|-----------------|-----------------|-----------------|-----------------|


13ª
|0-------0--------|--------0--------|-----------------|-----------------|
|----1-3-----3-1--|3-0-1-3---3-1-0--|1-----0-1--------|----------1-0-1--|
|-----------------|-----------------|----2------------|-----------------|
|-----------------|-----------------|--------------0--|2-3-2-0-2--------|
|-----------------|-----------------|------------3----|-----------------|
|-----------------|-----------------|-----------------|-----------------|

13e
|-----------------|-----------------|-----------------|-----------------|
|----1-0----------|------------0-1--|----1-0-1---0----|0-1-3-1-0-1---0--|
|2-------2---0----|0-------0-2------|2-------------2--|------------2----|
|--------------3--|--3-2-3----------|-----------------|-----------------|
|-----------------|-----------------|-----------------|-----------------|
|-----------------|-----------------|-----------------|-----------------|


14ª
|-----------------|-----------------|-----------------|-----------------|
|1----------------|0----------------|-----------------|1----------------|
|-----------------|-----------------|2----------------|-----------------|
|-----------------|-----------------|-----------------|-----------------|
|-----------------|-----------------|-----------------|-----------------|
|-----------------|-----------------|-----------------|-----------------|

14e
|-----------------|-----------------|-----------------|-----------------|
|-----------------|-----------------|-----------------|-----------------|
|-----------------|-----------------|-----------------|-----------------|
|-----------------|-----------------|-----------------|-----------------|
|3----------------|3----------------|3----------------|3----------------|
|-----------------|-----------------|-----------------|-----------------|


15ª
|-----------------|-----------------|-----------------|-----------------|
|-----------------|-----------------|-----------------|-----------------|
|------0----------|-------0---------|-----------------|-------0---------|
|-----------------|-----------------|-------2---------|-----------------|
|-----------------|-----------------|-----------------|-----------------|
|-----------------|-----------------|-----------------|-----------------|

15e
|-----------------|-----------------|-----------------|-----------------|
|-----------------|-----------------|-----------------|--------3--------|
|-----------------|-----------------|-----------------|-----------------|
|-------3---------|--------2--------|-------3---------|-----------------|
|-----------------|-----------------|-----------------|-----------------|
|-----------------|-----------------|-----------------|-----------------|


16ª
|0----------------|----------0------|-----------------|-----------------|
|-----------------|-----3---------3-|1----------------|-----------------|
|-----------------|-----------------|---------------2-|0----------------|
|-----2----3----2-|0----------------|-----2-----------|-----------------|
|-----------------|-----------------|-----------3-----|-----------------|
|-----------------|-----------------|-----------------|-----3----1----3-|

16e
|-----------------|-----------------|-----------------|-----------------|
|-----------------|-----------------|-----------------|0----------------|
|-----2----0----2-|0----------------|-----2----0----2-|-----------------|
|-----------------|-----------------|-----------------|-----------------|
|0----------------|-----------------|0----------------|-----2----0----2-|
|-----------------|-----3----1----3-|-----------------|-----------------|


17ª
|-----------------|-----------------|-----------------|-----------------|
|-----1----3----1-|0----------------|-----------------|0----------------|
|-----------------|-----------------|-----2----0----2-|-----------------|
|-----------------|-----------------|-----------------|----------2----0-|
|3----------------|-----2----3----2-|0----------------|-----2-----------|
|-----------------|-----------------|-----------------|-----------------|

17e
|---------------1-|0--------------0-|-----1----0----1-|-----------------|
|-----1----3------|-----------------|1----------------|3----------------|
|-----------------|----------0------|-----------------|-----0---------0-|
|-----------------|-----2-----------|-----------------|----------3------|
|3----------------|-----------------|-----------------|-----------------|
|-----------------|-----------------|-----------------|-----------------|


18ª
|-----------------|-----------------|-----------------|-----------------|
|-----------------|-----------------|-----------------|-----------------|
|-----0----0----0-|0----0----0----0-|-----------------|----------0----0-|
|3----------------|-----------------|2----2----2----2-|2----2-----------|
|-----------------|-----------------|-----------------|-----------------|
|-----------------|-----------------|-----------------|-----------------|

18e
|-----------------|-----------------|-----------------|-----------------|
|---------------1-|1----1----1----1-|1----1-----------|----------3----0-|
|-----------------|-----------------|----------2----2-|0----0-----------|
|3----3----3------|-----------------|-----------------|-----------------|
|-----------------|-----------------|-----------------|-----------------|
|-----------------|-----------------|-----------------|-----------------|


19ª
|-----0----0----0-|-----------------|-----------------|3----3----3----3-|
|-----------------|3----3----3----3-|1----1----1----1-|-----------------|
|0----------------|-----------------|-----------------|-----------------|
|-----------------|-----------------|-----------------|-----------------|
|-----------------|-----------------|-----------------|-----------------|
|-----------------|-----------------|-----------------|-----------------|

19e
|5----5----5----5-|3----3----3----3-|5----5----5----5-|7----------------|
|-----------------|-----------------|-----------------|-----------------|
|-----------------|-----------------|-----------------|-----0----0----0-|
|-----------------|-----------------|-----------------|-----------------|
|-----------------|-----------------|-----------------|-----------------|
|-----------------|-----------------|-----------------|-----------------|


20ª
|-----------------|-----------------|-----------------|-----------------|
|1----------------|-----0--1--3---0-|-----------------|-----------------|
|-----------------|-----------------|2----------------|-----0-----------|
|--------0-?2-----|-----------------|--------2--3-----|2-------3--2---0-|
|-----3---------3-|2----------------|-----0---------0-|-----------------|
|-----------------|-----------------|-----------------|-----------------|

20e
|-----------------|-----------------|-----------------|-----------------|
|-----------------|-----------------|-----------------|-----------------|
|-----------------|---------------0-|-----2--0--------|----0------------|
|----3--2--0----3-|2------0--2------|3----------3---2-|0------3--2----0-|
|3----------------|----3------------|-----------------|-----------------|
|-----------------|-----------------|-----------------|-----------------|


21ª
|-----------------|-----------------|----------0------|0---0------------|
|----1--0--1------|----------0------|----1--3-------1-|-------3--1----0-|
|-----------------|0---0--2-------0-|-----------------|-----------------|
|2--------------2-|-----------------|2----------------|-----------------|
|-----------------|-----------------|-----------------|-----------------|
|-----------------|-----------------|-----------------|-----------------|

21e
|-----------------|----0----------0-|1----------------|-----------------|
|---------------0-|1------3--1------|----1--0---------|-----------------|
|2---2--0--2------|-----------------|----------2----2-|0---------0----0-|
|-----------------|-----------------|-----------------|-----0-----------|
|-----------------|-----------------|-----------------|-----------------|
|-----------------|-----------------|-----------------|-----------------|


22ª
|-----------------|-----------------|-----------------|-----------------|
|-----------------|-----------------|-----------------|-----------------|
|0----------------|----------0------|-----------------|--------------0--|
|-----------------|-----------------|-----------------|-----------------|
|-----------------|-----------------|3----------------|-----------------|
|-----------------|-----------------|-----------------|-----------------|

22e
|-----------------|-----------------|-----------------|-----------------|
|-----------------|-----------------|-----------------|-----------------|
|-----------------|0----------------|-----------------|-----------------|
|3----------------|-----------------|3----------------|-----------------|
|-----------------|-----------------|-----------3-----|---3----------2--|
|-----------------|-----------------|-----------------|-----------------|


23ª
|-----------------|-----------------|-----------------|-----------------|
|--------1--------|0----------------|-----------------|-----------------|
|-----------------|-----------------|2----------------|0----------------|
|-----------------|-----------------|-----------------|-----------------|
|3----------------|-----------------|-----------------|-----------------|
|-----------------|-----------------|-----------------|-----------------|

23e
|-----------------|-----------------|-----------------|-----------------|
|-----------------|-----------------|-----------------|-----------------|
|-----------------|-----------------|-2---------------|-----------------|
|--------------0--|-2---------------|-----------------|----0----------0-|
|3----------------|-----------------|-----------------|-----------------|
|-----------------|-----------------|-----------------|-----------------|


24ª
|-------------0---|0----1----0------|-----------------|-----------------|
|-----------------|---------------3-|1-----------1----|1----3----1----0-|
|-----------------|-----------------|-----------------|-----------------|
|2----------------|-----------------|-----------------|-----------------|
|-----------------|-----------------|-----------------|-----------------|
|-----------------|-----------------|-----------------|-----------------|

24e
|-----------------|-----------------|-----------------|-----------------|
|-----------------|1----------------|1----0---------0-|-----------------|
|2----------------|-----------------|----------2------|0-------------0--|
|-----------------|-----------------|-----------------|-----------------|
|-----------------|-----------------|-----------------|-----------------|
|-----------------|-----------------|-----------------|-----------------|


25ª
|--------------3--|3----5----3----1-|0-------------0--|0----1----0------|
|-----------------|-----------------|-----------------|---------------3-|
|0----------------|-----------------|-----------------|-----------------|
|-----------------|-----------------|-----------------|-----------------|
|-----------------|-----------------|-----------------|-----------------|
|-----------------|-----------------|-----------------|-----------------|

25e
|-----------------|-----------------|-----------------|-----------------|
|1----0---------0-|-----------------|-------------1---|0-------------0--|
|----------2------|0-------------0--|-----------------|-----------------|
|-----------------|-----------------|3----------------|-----------------|
|-----------------|-----------------|-----------------|-----------------|
|-----------------|-----------------|-----------------|-----------------|


26ª
|-----------------|-----------------|-----------------|-----------------|
|1-----------1----|0----------------|-----------------|-----------------|
|-----------------|-----------------|-----------2-----|--------------0--|
|-----------------|-----------------|-----------------|-----------------|
|-----------------|-----------------|-----------------|-----------------|
|-----------------|-----------------|-----------------|-----------------|

26e
|-----------------|-----------------|-----------------|-----------------|
|-----------------|-----------------|-----------------|-----------------|
|0----------------|-----------------|-----------------|-----------------|
|-----------3-----|--2--------2-----|--------0--------|-------0---------|
|-----------------|-----------------|-----------------|-----------------|
|-----------------|-----------------|-----------------|-----------------|


27ª
|--------------0--|-----------------|-----------------|8-------------7--|
|-----------------|-------------3---|----1------------|-----------------|
|-----------------|-----------------|-----------------|-----------------|
|2----------------|-----------------|-----------------|-----------------|
|-----------------|-----------------|-----------------|-----------------|
|-----------------|-----------------|-----------------|-----------------|

27e
|5----------------|8-------------3--|------5----------|------3----------|
|-----------------|-----------------|-----------------|-----------------|
|-----------------|-----------------|-----------------|-----------------|
|-----------------|-----------------|-----------------|-----------------|
|-----------------|-----------------|-----------------|-----------------|
|-----------------|-----------------|-----------------|-----------------|


28ª
|3----------------|-----------------|-----------------|0----------------|
|-----------------|-----------------|-----------------|-------------3---|
|-----------------|0----------------|-----------------|-----------------|
|-----------------|---------------3-|---2-------------|-----------------|
|-----------------|-----------------|-----------------|-----------------|
|-----------------|-----------------|-----------------|-----------------|

28e
|-----------------|-----------------|-----------------|-----------------|
|1----------------|-------------1---|---1-------------|----0------------|
|-----------------|-----------------|-----------------|-----------------|
|-----------------|-----------------|-----------------|-----------------|
|-----------------|-----------------|-----------------|-----------------|
|-----------------|-----------------|-----------------|-----------------|


29ª
|-----------------|
|1----------------|
|-----------------|
|-----------------|
|-----------------|
|-----------------|
Suggest correction
Give kudos to tab author, rate the tab!
1 2 3 4 5
comments
print report bad tab
guest
You may want to rate the tab now too:
select rating
Wanna post a correction for this tab? Suggest correction