Oops, an error
Loading. Please wait.

Pau Casals - El Cant Dels Ocells Tab

439 views 6 this week
no commentswrite comment
1 2 3 4 5
3 more votes to show rating
add to favorites
launch autoscroll
font size
0
reset
how to read this tab
guitar tuner
Autoscroll
slow
fast
+/-
esc
set tempo
stop
Help us to improve Ultimate-Guitar.com Take our survey!
×
Aqui va esta verdadera obra de arte, a mi me suena muy bien,
probarla y cualquier duda o correccion solo decirlo. Suerte!!


-------------------------------------------------------------------------
----------------1-----0------------1-----------3-----------1------2------
----------------2---2-1--------0---2-----0-----2--2--1-----2------0------
--------------0-2-----2--2--3------2--3-----3--0--------3--2---2--2------
-----0--2--3----0-----0------------0-----------------------0------0------
--0----------------------------------------------------------------------


-------------------------------------------------------------------------
--------------3------0-----------------------------------1-----2---------
--------------2------0----------0-------------2----1-----2-----0---------
-----0--2--3--0---0--0--3--2--0-2--0----------0----2-----2---2-2---------
--4-----------------------------3-----3--2--3-0--3-2---0-0-----0---------
----------------------------------------------1----0---------------------


-----------------------------------------------------------0--5-4-----3--
--------------3-----0--------------------------------0-1-3-1----5-5-6----
----------0---2-----0--------0-----------2----1----2-------2----4--------
----0-2-3---3-0---0-0--3-2-0-2--0--------0----2--2---------2----6--------
--4--------------------------3----3--2-3-0-3--2------------0----0--------
-----------------------------------------1----0--------------------------


--0--1--3--1--5--5--------0------------------------3--1--0----0----------
--1-----------6-----9--6--1--5--5--------5--6-6--3-3--------3-1--3--1----
--2-----------7-----------2-----6--6--7-------7----0----------0----------
--2-----------0-----------2-----5-------------7----0----------2----------
--0-----------------------0-----0-------------5---------------3----------
-------------------------------------------------------------------------


----------0-----0------------------------3-1-0---0--------------0---5---|
--0-1-3-1-0-----1--5-5------5-6-8-6-6--3-3-----3-1--3-1-0-1-3-1-0---5---|
------2---1---2-2----6--6-7---------7----0-------0----------2---1---5---|
------3---2-----2----5--------------7----0-------2----------3---2---7---|
----------------0----0--------------5------------3------------------7---|
--------------------------------------------------------------------5---|
Suggest correction
Give kudos to tab author, rate the tab!
1 2 3 4 5
comments
print report bad tab
guest
You may want to rate the tab now too:
select rating
Wanna post a correction for this tab? Suggest correction