Oops, an error
Loading. Please wait.

Pavana I Tab

37 views 1 this week
no commentswrite comment
1 2 3 4 5
3 more votes to show rating
add to favorites
launch autoscroll
font size
0
reset
how to read this tab
guitar tuner
Autoscroll
slow
fast
+/-
esc
set tempo
stop
Help us to improve Ultimate-Guitar.com Take our survey!
×
================================================================================
          Title: Pavana I
         Artist: Milan
 Transcribed by: Kevin J. Manges, fretmeister@ braumstr@
                 (formerly braumeister@ & Kevinm2556@
Downloaded from: 
                 Also look for the MIDI at site above.
         Update: 29 AUG 00 (1st draft)
================================================================================  

Pavana I

Transcribed by Kevin J. Manges                                  Milan

                                                                
E||--0----------------|--3--------1--------|--0----------------|
B||--1----------------|--1--------1--------|--1----------------|
G||--0----------------|--0--------2--------|--0----------------|
D||-------------------|--2--------3--------|-------------------|
A||--3----------------|--------------------|--3----------------|
E||-------------------|--------------------|-------------------|


                                                                
|--3--------1--------|--0--------1--------|--0------------------|
|--1--------1--------|--1--------1--------|--1--------3---------|
|--0--------2--------|--0-----------------|--0--------0---------|
|--2--------3--------|--------------------|---------------------|
|--------------------|--3-----------------|--3--------2----0----|
|--------------------|-----------1--------|---------------------|


                                                             
|-------------------|-------------------|--------------------|
|--0----------------|--0----------------|--1-----------------|
|--0----------------|--0----------------|--2-----------------|
|--0----------------|--0----------------|--3------------2----|
|-------------------|-------------------|--------------------|
|--3----------------|--3----------------|--------------------|


                                                                     
|-------0----1---------|--0-------------------|--1----0--------------|
|--3--------------3----|----------------------|--1---------3----1----|
|--2-------------------|--0-------------------|--2-------------------|
|--0-------------------|----------------------|----------------------|
|----------------------|--3----2----0---------|----------------------|
|----------------------|-----------------3----|--1-------------------|


                                                              
|--------------------|--------------------|-------------------|
|--0--------1--------|-----------0--------|--1----------------|
|--0--------0--------|--0-----------------|--0----------------|
|--0--------2--------|--2-----------------|--2----------------|
|-----------3--------|--5-----------------|--3----------------|
|--3-----------------|--3-----------------|-------------------|


                                                                
|-------------------|--------------------|-------0----1---------|
|--1----------------|--1-----------------|--3--------------3----|
|--0----------------|--2-----------------|--2-------------------|
|--2----------------|--3------------2----|--0-------------------|
|--3----------------|--------------------|----------------------|
|-------------------|--------------------|----------------------|


                                                                   
|--0----1----3----0----|--5----3----1----0----|--------------------|
|------------1---------|----------------------|--3--------1--------|
|--0-------------------|--5-------------------|--------------------|
|------------2---------|--3-------------------|--3--------2--------|
|--3-------------------|----------------------|--1--------3--------|
|----------------------|----------------------|--------------------|


                                                             
|--------------------|-------------------|-------------------|
|-----------0--------|--1----------------|--1----------------|
|--0-----------------|--0----------------|--0----------------|
|--0-----------------|--2----------------|--2----------------|
|--------------------|--3----------------|--3----------------|
|--3-----------------|-------------------|-------------------|


                                                                     
|------------0----2----|--3----0----1----3----|------------0----1----|
|--1----3--------------|--1---------1---------|--1----3--------------|
|--0-------------------|----------------------|--0-------------------|
|----------------------|--2---------3---------|----------------------|
|--3-------------------|----------------------|--3-------------------|
|----------------------|----------------------|----------------------|


                                                                 
|--3----0----1----3----|--0--------3--------|-----------2--------|
|--1---------1---------|--1--------1--------|--3-----------------|
|----------------------|--0--------0--------|--2-----------------|
|--2---------3---------|-----------2--------|--0-----------------|
|----------------------|--3-----------------|--------------------|
|----------------------|--------------------|--------------------|


                                                             
|--3----------------|--3----------------|--------------------|
|--0----------------|--0----------------|--1-----------------|
|--0----------------|--0----------------|--2------------0----|
|-------------------|-------------------|--------------------|
|-------------------|-------------------|--------------------|
|--3----------------|--3----------------|--------------------|


                                                                    
|-------0----1---------|--0----1----3----1----|--3----1----3--------|
|--3--------------3----|--1--------------3----|--5----3----5--------|
|----------------------|----------------------|---------------------|
|--3-------------------|----------------------|---------------------|
|----------------------|----------------------|---------------------|
|----------------------|----------------------|---------------------|


                                                               
|--1--------0--------|--------------------|-----------3--------|
|--3-----------------|--3--------0--------|--1-----------------|
|-----------0--------|--2--------0--------|--0-----------------|
|--------------------|--3-----------------|--2-----------------|
|--------------------|--------------------|--------------------|
|--------------------|--------------------|--------------------|


                                                               
|--1--------3--------|--0-----------------|--------------------|
|--1--------1--------|--1-----------------|--3--------0--------|
|--2--------0--------|-----------0--------|--2--------0--------|
|--3--------2--------|--------------------|--3-----------------|
|--------------------|--3-----------------|--------------------|
|--------------------|--------------------|--------------------|


                                                               
|-----------3--------|--1--------3--------|--0-----------------|
|--1-----------------|--1--------1--------|--1-----------------|
|--0-----------------|--2--------0--------|-----------0--------|
|--2-----------------|--3--------2--------|--------------------|
|--------------------|--------------------|--3-----------------|
|--------------------|--------------------|--------------------|


                                                                 
|--------------------|--------------------|----------------------|
|--3--------0--------|--1-----------------|--1-------------------|
|--2--------0--------|--0-----------------|--0-------------------|
|--3-----------------|--2--------0--------|----------------------|
|--------------------|--------------------|--3----2----0---------|
|--------------------|--------------------|-----------------3----|


                                                                  
|----------------------|---------------------|--------------------|
|--1-------------------|---------------------|--1-----------------|
|--2-------------------|-------0-------------|--0-----------------|
|------------0----2----|--3---------3--------|-----------2--------|
|-------3--------------|---------------------|--3-----------------|
|--1-------------------|---------------------|--------------------|


                                                            
|-------------------|-------------------|-------------------|
|--1----------------|--1----------------|--1----------------|
|--2----------------|--0----------------|--0----------------|
|--3----------------|--2----------------|--2----------------|
|-------------------|--3----------------|--3----------------|
|--1----------------|-------------------|-------------------|


                                                                     
|------------0---------|-------0----1---------|--0----1----3----1----|
|--1----3---------1----|--3--------------3----|--1--------------3----|
|--2-------------------|----------------------|----------------------|
|----------------------|--3-------------------|----------------------|
|----------------------|----------------------|----------------------|
|----------------------|----------------------|----------------------|


                                                                
|--3----1----3--------|--1--------0--------|--------------------|
|--5----3----5--------|--3--------1--------|--3--------0--------|
|---------------------|--------------------|--2--------0--------|
|---------------------|--------------------|--3-----------------|
|---------------------|--------------------|--------------------|
|---------------------|--------------------|--------------------|


                                                              
|-------------------|--0--------3--------|--1--------3--------|
|--1----------------|--1--------1--------|--1--------1--------|
|--0----------------|--0--------0--------|--2--------0--------|
|--2----------------|--------------------|--------------------|
|-------------------|--3-----------------|--------------------|
|-------------------|-----------0--------|--1--------0--------|


                                                               
|--0--------3--------|--1--------3--------|--0--------1--------|
|--1--------1--------|--1--------1--------|--1--------1--------|
|--0--------0--------|--2--------0--------|--0--------2--------|
|-----------2--------|--3--------2--------|--------------------|
|--3-----------------|--------------------|--3-----------------|
|--------------------|--------------------|-----------1--------|


                                                              
|--0------------------|-------------------|-------------------|
|--1--------3---------|--0----------------|--0----------------|
|--0--------0---------|--0----------------|--0----------------|
|---------------------|--0----------------|--0----------------|
|--3--------2----0----|-------------------|-------------------|
|---------------------|--3----------------|--3----------------|


                                                                 
|--------------------|-------0----1---------|--0--------3--------|
|--1-----------------|--3--------------3----|-----------1--------|
|--2-----------------|--2-------------------|--0--------0--------|
|--3-----------------|--0-------------------|-----------2--------|
|--------------------|----------------------|--3-----------------|
|---------------0----|----------------------|--------------------|


                                                               
|--1--------0--------|--------------------|--------------------|
|--1--------1--------|--3--------1--------|-----------0--------|
|--2--------0--------|--3--------0--------|--0-----------------|
|--3-----------------|--3--------2--------|--0-----------------|
|-----------3--------|--1--------3--------|--------------------|
|--------------------|--------------------|--3-----------------|


                                                                   
|--------------------|----------------------|----------------------|
|--1-----------------|--1-------------------|--1-------------------|
|--0-----------------|--0-------------------|--2-------------------|
|-----------0--------|--2---------0----2----|--3----2----0---------|
|--3-----------------|-------3--------------|-----------------3----|
|--------------------|----------------------|----------------------|


                                                                   
|----------------------|--0-------------------|--1------------0----|
|--3-------------------|----------------------|--1-----------------|
|--0-------------------|--0-------------------|--2-----------------|
|------------0---------|----------------------|--------------------|
|--2----3---------2----|--3----2----0---------|--------------------|
|----------------------|-----------------3----|--1-----------------|


                                                               
|--------------------|--------------------|-------------------||
|--3--------1--------|-----------0--------|--1----------------||
|--0--------0--------|--0-----------------|--0----------------||
|--0--------2--------|--0-----------------|--2----------------||
|-----------3--------|--------------------|--3----------------||
|--3-----------------|--3-----------------|-------------------||
Suggest correction
Give kudos to tab author, rate the tab!
1 2 3 4 5
comments
print report bad tab
guest
You may want to rate the tab now too:
select rating
Wanna post a correction for this tab? Suggest correction