Oops, an error
Loading. Please wait.

Preludio Criollo Tab

175 views 3 this week
no commentswrite comment
1 2 3 4 5
3 more votes to show rating
add to favorites
×
Save as Personal and add changes to this tab that will be seen only by you. Learn more ›
×
You can save this tab as Personal to edit and correct it or add notes. All changes will be seen only by you. Learn more »
save as personal
new!
launch autoscroll
font size
0
reset
how to read this tab
guitar tuner
Autoscroll
slow
fast
+/-
esc
set tempo
stop
Preludio Criollo
Author: Rodrigo Riera
TAB by: Gianpiero Ciammaricone
        gianpiero@
        

The basic arpeggio for this song is:

   A  m  i  A  m  i
   p     p     p

You make take a while to play it right, but then it will
just come naturally. This arpeggio is used throught the
WHOLE song except in two places (The different arpeggio
is written in those two places)

Key Signature: G minor
Time Signature: 6/8


    &
E-|-------------|-------------|-------------|-------------|
B-|(3-----3-----|-3-----3-----|-3-----3-----|-3-----3-----|
G-|)3-3-----3---|---3-----3---|---2-----2---|---2-----2---|
D-|(0---0-----0-|-----0-----0-|-----0-----0-|-----0-----0-|
A-|-------------|-------------|-------------|-------------|
E-|)3---3---3---|-3---3---3---|-2---2---2---|-2---2---2---|


E-|-------------|-------------|-------------|-------------|
B-|-3-----3-----|-1-----0-----|-3-----3-----|-1-----1-----|
G-|---1-----1---|---1-----1---|---0-----0---|---0-----0---|
D-|-----0-----0-|-----0-----0-|-----1-----1-|-----1-----1-|
A-|-------------|-------------|-3---3---3---|-3---3---3---|
E-|-1---1---1---|-1---1---1---|-------------|-------------|


E-|-------------|-------------|-------------|-------------|
B-|-------------|-------------|-------------|-------------|
G-|-3-----3-----|-3-----3-----|-2-----2-----|-2-----2-----|
D-|---1-----1---|---1-----1---|---1-----1---|---1-----1---|
A-|-----3-----3-|-----3-----3-|-----3-----3-|-----3-----3-|
E-|-3---3---3---|-3---3---3---|-2---2---2---|-2---2---2---|


E-|-------------|-------------|-------------|-------------|
B-|-------------|-------------|-------------|-------------|
G-|-0-----0-----|-0-----0-----|-2-----2-----|-2-----2-----|
D-|---1-----1---|---2-----2---|---0-----0---|---0-----0---|
A-|-----3-----3-|-----4-----4-|-----3-----3-|-----3-----3-|
E-|-3-----------|-3---3---3---|-2---2---2---|-2---2---2---|


E-|-------------|-------------|-------------|-------------|
B-|-3-----3-----|-3-----3-----|-4-----4-----|-4-----4-----|
G-|---3-----3---|---3-----3---|---3-----3---|---3-----3---|
D-|-----0-----0-|-----0-----0-|-----1-----1-|-----1-----1-|
A-|-------------|-------------|-------------|-------------|
E-|-3---3---3---|-3---3---3---|-3---3---3---|-3---3---3---|


                                C1--------\
E-|-------------|-2-----2-----|-1-----1-----|-2-----2-----|
B-|-4-----4-----|---4-----4---|---3-----3---|---4-----4---|
G-|---5-----5---|-----5-----5-|-----3-----3-|-----5-----5-|
D-|-----3-----3-|-------------|-------------|-------------|
A-|-------------|-------------|-1---1---1---|-0---0---0---|
E-|-5---5---5---|-5---5---5---|-------------|-------------|


    C3--------\
E-|-6-----6-----|-3-----3-----|-3-----3-----|-3-----3-----|
B-|---3-----3---|---3-----3---|---2-----2---|---2-----2---|
G-|-----3-----3-|-----3-----3-|-----3-----3-|-----3-----3-|
D-|-------------|-------------|-------------|-2---2---2---|
A-|-------------|-------------|-------------|-------------|
E-|-3---3---3---|-1---1---1---|-0---0---0---|-------------|


                                C3----------------------\
E-|-3-----3-----|-2-----2-----|-5-----5-----|-3-----3-----||
B-|---1-----1---|---1-----1---|---3-----3---|---3-----3---||
G-|-----2-----2-|-----2-----2-|-----5-----5-|-----3-----3-||
D-|-1---1---1---|-0---0---0---|-------------|-------------||
A-|-------------|-------------|-------------|-------------||
E-|-------------|-------------|-3---3---3---|-3---3---3---||


                                    C7------------------------------\
E-|-10-----10-----|-10-----10-----|-10------10------|-10------10-----|
B-|----8------8---|----8------8---|----10------10---|----10------10--|
G-|------7------7-|------7------7-|-------7-------7-|-------7-------7|
D-|-8----8----8---|-8----8----8---|-----------------|----------------|
A-|---------------|---------------|-9-----9----9----|-9-----9----9---|
E-|---------------|---------------|-----------------|----------------|


    C7------------------------\   C8------------------------\
E-|-10-----10-----|-8-----7-----|-10-----10-----|-8-----8----|
B-|----9------9---|---9-----9---|----8------8---|---8-----8--|
G-|------7------7-|-----7-----7-|------8------8-|-----8-----8|
D-|---------------|-------------|---------------|------------|
A-|-8----8----8---|-8---8---8---|---------------|------------|
E-|---------------|-------------|-8----8----8---|-8---8---8--|


E-|-6-----6-----|-6-----6-----|-5-----5-----|-5-----5-----|
B-|---4-----4---|---4-----4---|---4-----4---|---4-----4---|
G-|-----5-----5-|-----5-----5-|-----5-----5-|-----5-----5-|
D-|-5---5---5---|-5---5---5---|-4---4---4---|-4---4---4---|
A-|-------------|-------------|-------------|-------------|
E-|-------------|-------------|-------------|-------------|


E-|-3-----3-----|-3-----3-----|-5-----5-----|-5-----5-----|
B-|---4-----4---|---5-----5---|---3-----3---|---3-----3---|
G-|-----5-----5-|-----6-----6-|-----5-----5-|-----5-----5-|
D-|-5---5-----5-|-5---5---5---|-4---4---4---|-4---4---4---|
A-|-------------|-------------|-------------|-------------|
E-|-------------|-------------|-------------|-------------|


                                    C8---------------------------\
E-|-10-----10-----|-10-----10-----|-11-----11------|-11-----11----|
B-|----8------8---|----8------8---|----8------8----|----8------8--|
G-|------7------7-|------7------7-|------8-------8-|------8------8|
D-|-8----8----8---|-8----8----8---|-10---10---10---|-10---9----8--|
A-|---------------|---------------|----------------|--------------|
E-|---------------|---------------|----------------|--------------|


E-|-11-------11-------|-11-------11-------|
B-|----13-------13----|----13-------13----| 
G-|-------10-------10-|-------10-------10-| 
D-|-12----12----12----|-12----12----12----|
A-|-------------------|-------------------|
E-|-------------------|-------------------|


                        C8-------------\
E-|-10-------10-------|-10-------8-------|
B-|----11-------11----|----10------10----|
G-|-------10-------10-|-------8-------8--|
D-|-8-----8-----8-----|------------------|
A-|-------------------|-9-----9----9-----|
E-|-------------------|------------------|


E-|-6-----6-----|-6-----6-----|-6-----6-----|-6-----6-----|
B-|---8-----8---|---8-----8---|---8-----8---|---8-----8---|
G-|-----7-----7-|-----7-----7-|-----7-----7-|-----7-----7-|
D-|-5---5---5---|-------------|-------------|-------------|
A-|-------------|-7---7---7---|-6---6---6---|-6---6---6---|
E-|-------------|-------------|-------------|-------------|


    C5----------------------\    C3----------------------\
E-|-5-----5-----|-5-----5-----||-3-----------|------------|
B-|---8-----8---|---7-----7---||-------3-----|-4-----3----|
G-|-----5-----5-|-----5-----5-||-----3---3---|---3-----3--|
D-|-------------|-------------||---5-------5-|-----5-----5|
A-|-6---6---6---|-5---5---5---||-------------|------------|
E-|-------------|-------------||-3---3---3---|-3---3---3--|
                                 a i m a m i
                                 p   p   p


                                C3----------------------\
E-|-------------|-------------|-------------|-------------|
B-|-1-----1-----|-3-----1-----|-------3-----|-4-----3-----|
G-|---2-----2---|---2-----2---|-3-------3---|---3-----3---|
D-|-----0-----0-|-----0-----0-|---5-------5-|-----5-----5-|
A-|-------------|-------------|-----5-------|-------------|
E-|-2---2---2---|-2---2---2---|-3---3---3---|-3---3---3---|


                                C3--------\
E-|-------------|-------------|-------------|-3-----1-----|
B-|-1-----1-----|-3-----1-----|-------3-----|---3-----3---|
G-|---2-----2---|---2-----2---|-3-------3---|-----0-----0-|
D-|-----0-----0-|-----0-----0-|---5-------5-|-------------|
A-|-------------|-------------|-----5-------|-2---2---2---|
E-|-2---2---2---|-2---2---2---|-3---3---3---|-------------|
                               

    C3--------\   C1-----------------------\
E-|-------------|-1-----------|-------------|-------------|
B-|-4-----4-----|---1---4-----|-3-----3-----|-4-----3-----|
G-|---5-----5---|-----2---2---|---3-----3---|---3-----3---|
D-|-----5-----5-|-----------1-|-----3-----3-|-----1-----1-|
A-|-3---3---3---|-------------|-1---1---1---|-------------|
E-|-------------|-1---1---1---|-------------|-3---3---3---|


E-|-------------|-------------|-------------|-3-----1-----|
B-|-1-----4-----|-3-----1-----|-------3-----|---3-----3---|
G-|---2-----2---|---2-----2---|-3-------3---|-----0-----0-|
D-|-----0-----0-|-----0-----0-|---5-------5-|-------------|
A-|-------------|-------------|-----5-------|-2---2---2---|
E-|-2---2---2---|-2---2---2---|-3---3---3---|-------------|


    C3----------------------\   C2----------------------\
E-|-------------|-5-----3-----|-3-----3-----|-2-----2-----|
B-|-4-----4-----|---5-----5---|---3-----3---|---3-----3---|
G-|---5-----5---|-----3-----3-|-----2-----2-|-----2-----2-|
D-|-----5-----5-|-------------|-0---0---0---|-0---0---0---|
A-|-3---3---3---|-4---4---4---|-------------|-------------|
E-|-------------|-------------|-------------|-------------|


    C2----------------------\
E-|-2-----2-----|-2-----2-----|-3-----3-----|-3-----3-----|
B-|---3-----3---|---3-----3---|---3-----3---|---1-----1---|
G-|-----2-----2-|-----2-----2-|-----0-----0-|-----2-----2-|
D-|-------------|-------------|-------------|-1---1---1---|
A-|-3---3---3---|-3---3---3---|-1---1---1---|-------------|
E-|-------------|-------------|-------------|-------------|


                                C3----------------------\
E-|-2-----2-----|-2-----2-----|-3-----3-----|-3-----3-----||
B-|---1-----1---|---1-----1---|---3-----3---|---3-----3---||
G-|-----2-----2-|-----2-----2-|-----3-----3-|-----3-----3-||
D-|-0---0---0---|-------------|-------------|-------------||
A-|-------------|-1---1---1---|-------------|-------------||
E-|-------------|-------------|-3---3---3---|-3---3---3---||


    &
E-|-------------|-------------|-------------|-------------|
B-|(3-----3-----|-3-----3-----|-3-----3-----|-3-----3-----|
G-|)3-3-----3---|---3-----3---|---2-----2---|---2-----2---|
D-|(0---0-----0-|-----0-----0-|-----0-----0-|-----0-----0-|
A-|-------------|-------------|-------------|-------------|
E-|)3---3---3---|-3---3---3---|-2---2---2---|-2---2---2---|


E-|-------------|-------------|-------------|-------------|
B-|-3-----3-----|-1-----0-----|-3-----3-----|-1-----1-----|
G-|---1-----1---|---1-----1---|---0-----0---|---0-----0---|
D-|-----0-----0-|-----0-----0-|-----1-----1-|-----1-----1-|
A-|-------------|-------------|-3---3---3---|-3---3---3---|
E-|-1---1---1---|-1---1---1---|-------------|-------------|


E-|-------------|-------------|-------------|-------------|
B-|-------------|-------------|-------------|-------------|
G-|-3-----3-----|-3-----3-----|-2-----2-----|-2-----2-----|
D-|---1-----1---|---1-----1---|---1-----1---|---1-----1---|
A-|-----3-----3-|-----3-----3-|-----3-----3-|-----3-----3-|
E-|-3---3---3---|-3---3---3---|-2---2---2---|-2---2---2---|


E-|-------------|-------------|-------------|-------------|
B-|-------------|-------------|-------------|-------------|
G-|-0-----0-----|-0-----0-----|-2-----2-----|-2-----2-----|
D-|---1-----1---|---2-----2---|---0-----0---|---0-----0---|
A-|-----3-----3-|-----4-----4-|-----3-----3-|-----3-----3-|
E-|-3-----------|-3---3---3---|-2---2---2---|-2---2---2---|


E-|-------------|-------------|-------------|-------------|
B-|-3-----3-----|-3-----3-----|-4-----4-----|-4-----4-----|
G-|---3-----3---|---3-----3---|---3-----3---|---3-----3---|
D-|-----0-----0-|-----0-----0-|-----1-----1-|-----1-----1-|
A-|-------------|-------------|-------------|-------------|
E-|-3---3---3---|-3---3---3---|-3---3---3---|-3---3---3---|


                                C1--------\
E-|-------------|-2-----2-----|-1-----1-----|-2-----2-----|
B-|-4-----4-----|---4-----4---|---3-----3---|---4-----4---|
G-|---5-----5---|-----5-----5-|-----3-----3-|-----5-----5-|
D-|-----3-----3-|-------------|-------------|-------------|
A-|-------------|-------------|-1---1---1---|-0---0---0---|
E-|-5---5---5---|-5---5---5---|-------------|-------------|


    C3----------------------\   C2----------------------\
E-|-6-----6-----|-6-----6-----|-6-----6-----|-5-----5-----|
B-|---3-----3---|---3-----3---|---2-----2---|---2-----2---|
G-|-----3-----3-|-----3-----3-|-----2-----2-|-----2-----2-|
D-|-5---5---4---|-3---3---3---|-2---2---2---|-2---2---2---|
A-|-------------|-------------|-------------|-------------|
E-|-------------|-------------|-------------|-------------|


                                C3----------------------\
E-|-5-----5-----|-5-----5-----|-4-----4-----|-3-----3-----|
B-|---3-----3---|---3-----3---|---3-----3---|---3-----3---|
G-|-----5-----5-|-----5-----5-|-----5-----5-|-----4-----4-|
D-|-0---0---0---|-0---0---0---|-3---3---3---|-------------|
A-|-------------|-------------|-------------|-------------|
E-|-------------|-------------|-------------|-3---3---3---|


    C3--------\
E-|-3-----3-----|-2-----2-----|-3-----3-----|-3-----3-----|
B-|---4-----4---|---4-----4---|---3-----3---|---3-----2---|
G-|-----5-----5-|-----5-----5-|-----3-----3-|-----3-----3-|
D-|-------------|-------------|-5---5---4---|-3---3---2---|
A-|-3---3---3---|-0---0---0---|-------------|-------------|
E-|-------------|-------------|-------------|-------------|


                                C3----------------------\
E-|-3-----3-----|-2-----2-----|-5-----5-----|-3-----------|
B-|---1-----1---|---1-----1---|---3-----3---|-------3-----|
G-|-----2-----2-|-----2-----2-|-----5-----5-|-----3---3---|
D-|-1---1---1---|-0---0---0---|-------------|---5-------5-|
A-|-------------|-------------|-------------|-------------|
E-|-------------|-------------|-3---3---3---|-3---3---3---|
                                              a i m a m i
                                              p   p


    C3--------\                               C3--------\
E-|-------------|-------------|-------------|-------------|
B-|-4-----3-----|-1-----1-----|-3-----1-----|-------3-----|
G-|---3-----3---|---2-----2---|---2-----2---|-3-------3---|
D-|-----5-----5-|-----0-----0-|-----0-----0-|---5-------5-|
A-|-------------|-------------|-------------|-----5-------|
E-|-3---3---3---|-2---2---2---|-2---2---2---|-3---3---3---|


                  C3----------------------\   C2--------\
E-|-3-----1-----|-------------|-5-----3-----|-3-----3-----|
B-|---3-----3---|-4-----4-----|---5-----5---|---3-----3---|
G-|-----0-----0-|---5-----5---|-----3-----3-|-----2-----2-|
D-|-------------|-----5-----5-|-------------|-0---0---0---|
A-|-2---2---2---|-3---3---3---|-4---4---4---|-------------|
E-|-------------|-------------|-------------|-------------|


    C2------------------------------------\
E-|-2-----2-----|-2-----2-----|-2-----2-----|-3-----3-----|
B-|---3-----3---|---3-----3---|---3-----3---|---3-----3---|
G-|-----2-----2-|-----2-----2-|-----2-----2-|-----0-----0-|
D-|-0---0---0---|-------------|-------------|-------------|
A-|-------------|-3---3---3---|-3---3---3---|-1---1---1---|
E-|-------------|-------------|-------------|-------------|


                                               C3
E-|-3-----3-----|-2-----2-----|-2-----2-----|-(3---------||
B-|---1-----1---|---1-----1---|---1-----1---|-)3---------||
G-|-----2-----2-|-----2-----2-|-----2-----2-|-(3---------||
D-|-1---1---1---|-0---0---0---|-------------|-)5---------||
A-|-------------|-------------|-1---1---0---|-(5---------||
E-|-------------|-------------|-------------|-)3---------||
    Rallentando                                Fine


Tablature Explanation:
                                                 Tempo Beats
                                                 /---------\
                &                                |   |   |
        / E-|--------|-------|-------|----(0----|--------0===|
        | B-|--------|-------|-------|----)1----|------1=----|
  String| G-|---4----|--5h8--|--8p5--|----(2----|----2=------|
  Tuning| D-|--------|-------|-------|----)2----|------------|
        | A-|--------|-------|-------|----(0----|0==---------|
        \ D-|--------|-------|-------|----------|------------|

             Altered  Hammer   Pull   Arpeggiate   Sustain
             Duration   on      off
             of Note
             |
             |
             ---> (You can make the note last whatever you want)
                   


Remember that a 'C' followed by a number indicates a bar in that fret.


E-||---Author:-Rodrigo-Riera---------------------||
B-||---Transcription-by:-Gianpiero-Ciammaricone--||
G-||---To-find-this-and-other-classical-guitar---||   
D-||---transcriptions-go-to:---------------------||
A-||---
D-||---Enjoy!!!----------------------------------||
Suggest correction
Give kudos to tab author, rate the tab!
1 2 3 4 5
comments
print report bad tab
guest
Wanna post a correction for this tab? Suggest correction