Oops, an error
Loading. Please wait.

Preludio En C Menor Tab

43 views 1 this week
no commentswrite comment
1 2 3 4 5
3 more votes to show rating
add to favorites
×
Save as Personal and add changes to this tab that will be seen only by you. Learn more ›
×
You can save this tab as Personal to edit and correct it or add notes. All changes will be seen only by you. Learn more »
save as personal
new!
launch autoscroll
font size
0
reset
how to read this tab
guitar tuner
Autoscroll
slow
fast
+/-
esc
set tempo
stop
e:------------------------------|------------------------------|
B:-----8--6--8--4--8--6--8------|-----8--6--8--4--8--6--8------|
G:--5---------------------------|--5---------------------------|
D:------------------------------|------------------------------|
A:------------------------------|------------------------------|
E:------------------------------|------------------------------|


e:------------------------------|------------------------------|
B:-----9--8--9--6--9--8--9------|-----9--8--9--6--9--8--9------|
G:--5---------------------------|--5---------------------------|
D:------------------------------|------------------------------|
A:------------------------------|------------------------------|
E:------------------------------|------------------------------|

e:------------------------------|------------------------------|
B:-----8--6--8--4--8--6--8------|-----8--6--8--4--8--6--8------|
G:--5---------------------------|--5---------------------------|
D:------------------------------|------------------------------|
A:------------------------------|------------------------------|
E:------------------------------|------------------------------|


e:------------------------------|------------------------------|
B:-----9--8--9--6--9--8--9------|-----9--8--9--6--9--8--9------|
G:--5---------------------------|--5---------------------------|
D:------------------------------|------------------------------|
A:------------------------------|------------------------------|
E:------------------------------|------------------------------|

e:------------------------------|------------------------------|
B:-----8--6--8--4--8--6--8------|-----8--6--8--4--8--6--8------|
G:--5---------------------------|--5---------------------------|
D:------------------------------|------------------------------|
A:------------------------------|------------------------------|
E:------------------------------|------------------------------|

e:-----8--6--8--4--8--6--8------|-----8--6--8--4--8--6--8------|
B:------------------------------|------------------------------|
G:--5---------------------------|--5---------------------------|
D:------------------------------|------------------------------|
A:------------------------------|------------------------------|
E:------------------------------|------------------------------|

e:------------------------------|------------------------------|
B:-----10--8--10--7--10--8--10--|-----10--8--10--7--10--8--10--|
G:--7---------------------------|--7---------------------------|
D:------------------------------|------------------------------|
A:------------------------------|------------------------------|
E:------------------------------|------------------------------|

e:------------------------------|------------------------------|
B:-----11--10--11--8--11--10--11|-----11--10--11--8--11--10--11|
G:------------------------------|------------------------------|
D:--8---------------------------|--8---------------------------|
A:------------------------------|------------------------------|
E:------------------------------|------------------------------|

e:------------------------------|------------------------------|
B:-----8--6--8--5--8--6--8------|-----8--6--8--5--8--6--8------|
G:--5---------------------------|--5---------------------------|
D:------------------------------|------------------------------|
A:------------------------------|------------------------------|
E:------------------------------|------------------------------|

e:------------------------------|------------------------------|
B:-----9--8--9--6--9--8--9------|-----9--8--9--6--9--8--9------|
G:------------------------------|------------------------------|
D:--6---------------------------|--6---------------------------|
A:------------------------------|------------------------------|
E:------------------------------|------------------------------|

e:------------------------------|------------------------------|
B:--------------6---------------|--------------6---------------|
G:-----7--5--7-----7--5--7------|-----7--5--7-----7--5--7------|
D:--6---------------------------|--6---------------------------|
A:------------------------------|------------------------------|
E:------------------------------|------------------------------|

e:------------------------------|------------------------------|
B:--------------8---------------|--------------8---------------|
G:-----8--7--8-----8--7--8------|-----8--7--8-----8--7--8------|
D:--5---------------------------|--5---------------------------|
A:------------------------------|------------------------------|
E:------------------------------|------------------------------|

e:--------------4---------------|--------------4---------------|
B:------------------------------|------------------------------|
G:--5--8--6--8-----8--6--8------|--5--8--6--8-----8--6--8------|
D:------------------------------|------------------------------|
A:------------------------------|------------------------------|
E:------------------------------|------------------------------|

e:--------------4---------------|--------------4---------------|
B:-----6--4--6-----6--4--6------|-----6--4--6-----6--4--6------|
G:--3---------------------------|--3---------------------------|
D:------------------------------|------------------------------|
A:------------------------------|------------------------------|
E:------------------------------|------------------------------|

e:--------------4---------------|--------------4---------------|
B:--4--8--6--8-----8--6--8------|--4--8--6--8-----8--6--8------|
G:------------------------------|------------------------------|
D:------------------------------|------------------------------|
A:------------------------------|------------------------------|
E:------------------------------|------------------------------|

e:------------------------------|------------------------------|
B:-----10--8--10--6--10--8--10--|-----10--8--10--6--10--8--10--|
G:--8---------------------------|--8---------------------------|
D:------------------------------|------------------------------|
A:------------------------------|------------------------------|
E:------------------------------|------------------------------|

e:------------------------------|------------------------------|
B:----------------9-------------|----------------9-------------|
G:--7--10--8--10-----10--8--10--|--7--10--8--10-----10--8--10--|
D:------------------------------|------------------------------|
A:------------------------------|------------------------------|
E:------------------------------|------------------------------|

e:--------------4---------------|--------------4---------------|
B:-----6--5--6-----6--5--6------|-----6--5--6-----6--5--6------|
G:--5---------------------------|--5---------------------------|
D:------------------------------|------------------------------|
A:------------------------------|------------------------------|
E:------------------------------|------------------------------|

e:------------------------------|------------------------------|
B:--------------6---------------|--------------6---------------|
G:--5--8--7--8-----8--7--8------|--5--8--7--8-----8--7--8------|
D:------------------------------|------------------------------|
A:------------------------------|------------------------------|
E:------------------------------|------------------------------|
                                             Cm
e:-------------------------------------------------------------|
B:--3---------------------------------------------------4------|
G:-----5--4--5--4---------------------------------------5------|
D:-----------------6--5--6--5--3-----3------------------5------|
A:--------------------------------6-----6--5--3--2--3~~~3------|
E:-------------------------------------------------------------|


Si Tenés alguna duda, no dudes más, mandáme un mail.
Suggest correction
Give kudos to tab author, rate the tab!
1 2 3 4 5
comments
print report bad tab
guest
Wanna post a correction for this tab? Suggest correction