Oops, an error
Loading. Please wait.

Preludio Nº 20 Tab

22 views 1 this week
no commentswrite comment
1 2 3 4 5
3 more votes to show rating
add to favorites
launch autoscroll
font size
0
reset
how to read this tab
guitar tuner
Autoscroll
slow
fast
+/-
esc
set tempo
stop
Preludio No. 20                           Frederic Chopin, tr. Tarrega

Lento

 1 |       |       |       |         |       |       |       |    
E|-4-------5-------4---------------|-0-------2-------0---------------|
B|-5-------7-------5-----7-5-------|-2-------3-------2-----3-2-------|
G|-6-------6-------5-----5-6-------|-2-------2-------1-----4-2-------|
D|---------4-------------6-6-------|---------0-------------2-2-------|
A|-4-----------------------4-------|-0-----------------------0-------|
E|-----------------4-----4---------|-----------------0-----0---------|
  ff


                                    arpeggiate.......................
 3 |       |       |       |         |       |       |       |    
E|-----------------4-----2-1-------|---------4-------8-----6-4-------|
B|-4-------6-------2-----2-2-------|-4-------4-------8-----8-4-------|
G|-5-------4-------2-----2-1-------|-6-------5-------6-----6-5-------|
D|-4-------6-----------------------|-5-------6-------8-------6-------|
A|---------4---------------4-------|-6-------6-------6-----6-6-------|
E|-4---------------2-----2---------|---------4---------------4-------|


 5 |       |       |       |         |       |       |       |    
E|-12------12------11------11------|-9-------11------8-----6-4-------|
B|-9-------10------10------9-------|-9-------8-------9-------4-------|
G|---------9------------11---------|-----------------8-----6-5-------|
D|-11------11------10------9-------|-8-------7-------6-------4-------|
A|---------------------------------|---------------------------------|
E|-9-------------------------------|---------------------------------|
  p
   

   
 7 |       |       |       |         |       |       |       |    
E|-9-------------------------------|---------------------------------|
B|---------10------9---------------|-5-------7-------5-----4---------|
G|-6-------11------8----11-9-------|-6-------7-------5-------6-------|
D|-6-------11--------------11------|-7-------7-------4-------6-------|
A|-7-------9------11-------11------|---------5---------------7-------|
E|-----------------8-------9-------|-5---------------4-------9-------|

   
   

 9 |       |       |       |         |       |       |       |    
E|---------------------------------|---------------------------------|
B|-5-------5-------4-------4-------|-2-------4-------1---------------|
G|-----------------2-------1-------|-1-------0-------1-----3-1-------|
D|-6-------7-------------4---------|-----------------1-------1-------|
A|-4-------4-------3-------2-------|-1-------0-------------4-3-------|
E|---------------------------------|-----------------4-------2-------|
  pp
   
  

11 |       |       |       |         |       |       |       |    
E|---------------------------------|---------------------------------|
B|-2-------------------------------|---------------------------------|
G|-1-------2-------1---------------|---------------------------------|
D|---------4-------1-----4-2-------|-2-------4-------2---------------|
A|-4-------4-------3-------4-------|-4-------5-------4---------------|
E|-0-------2-----------------------|-5-------2-------4----11-9-------|
   

   
   
   fermata........................
13 |       |       |       |
E|-9-------------------------------||
B|---------------------------------||
G|-9-------------------------------||
D|---------------------------------||
A|-11------------------------------||
E|-9-------------------------------||
Suggest correction
Give kudos to tab author, rate the tab!
1 2 3 4 5
comments
print report bad tab
guest
Wanna post a correction for this tab? Suggest correction