Oops, an error
Loading. Please wait.

Ricercare Tab

58 views 1 this week
no commentswrite comment
1 2 3 4 5
3 more votes to show rating
add to favorites
launch autoscroll
font size
0
reset
how to read this tab
guitar tuner
×
Best way to learn
"Ricercare"
Autoscroll
slow
fast
+/-
esc
set tempo
stop
Franciscus Bossinensis - RICERCARE No. 23/1
-------------------------------------------

(Transcription: Urosh Dojchinovich, tablature: Sasha Sekulich)

moderato, 4/4
                                                                       1
E -----2-4-5------10-9-7----------2-3-5-2-3-------2---------3---------|
H -3-5-------------------10-8-7-5-3-------------------0-2-3-5-2-------|
G ---------------------0----------------------------2-----------------|
D -0-------4-2-0---9-7--------0---0-------2-0-2---0---------2---------|
A ---------------4--------9-7---4---------------4---------------------|
E -----------------7--------------------------------------------------|

                                                                       2
E -2---------------5-------7---------9-------9-5-7-5-3-5-3-5-2--------|
H -----------------2-0---------------------------0-----2--------------|
G ---------------------2-----------------6-7-6-7----------------------|
D -----------------------6-----------7-9------------------------------|
A -5-4-5-2-7-5-4-2-0-------7-5-4---0---------0-5----------------------|
E -------------------------------7---------------3-----2--------------|

                                                                       3
E -------------------------5------------------------------------------|
H -5-3-2---2-4-2-------------------------------------3---2------------|
G -6-----4-2-------------------------------------0-2------------------|
D -------------------------4-2-4-5-4-2-----0-2-4-2-4---2--------------|
A ---------0---5-4-5-2-0-2-------------5-4-2-4-5----------------------|
E -2-----------------------2------------------------------------------|

                                                                       4
E 10-------------9---------------7-5-4-2---5-4---4-5-7-5-7-4----------|
H -7-------------------------------------5---0-5----------------------|
G -----------------------------------------2--------------------------|
D -0---0-2-0-----7-------------------------4--------------------------|
A ---4-----------0-----5-7-5-----7-------4---7------------------------|
E -----------9-7---7-9-------9-7--------------------------------------|

                                                                       5
E -5-4-5-7-9-7-5-----------------------------------------------------|H
H ---------------9-7-5-7-10---9-10-9-7-9-10--------------------------|H
G -2-4-2-----------7---7---------------------------------------------|H
D ---2-4-6-7--------------6--------------12--------------------------|H
A -0-----7-0-------5-0-5--9-7-------------0--------------------------|H
E -------------------------------------------------------------------|H
Suggest correction
Give kudos to tab author, rate the tab!
1 2 3 4 5
comments
print report bad tab
guest
You may want to rate the tab now too:
select rating
Wanna post a correction for this tab? Suggest correction