Oops, an error
Loading. Please wait.

Rigoletto - La Donna È Mobile Tab

553 views 18 this week
no commentswrite comment
1 2 3 4 5
1 last vote to show rating
add to favorites
launch autoscroll
font size
0
reset
how to read this tab
guitar tuner
Autoscroll
slow
fast
+/-
esc
set tempo
stop
Help us to improve Ultimate-Guitar.com Take our survey!
×
Guitarra solista (jolomé)


E||--------------||---------------|--0----0----0----|--3---1----------|
B||--------------||---------------|-----------------|--------3--------|
G||--------------||*--------------|-----------------|-----------------|
D||--------------||*--------------|-----------------|-----------------|
A||--------------||---------------|-----------------|-----------------|
E||--------------||---------------|-----------------|-----------------|


-----------------|--1---0----------|--0--------------|-----------------|
--3----3----3----|--------1--------|-------3----1----|--1---0-0--------|
-----------------|-----------------|-----------------|-----------------|
-----------------|-----------------|-----------------|-----------------|
-----------------|-----------------|-----------------|-----------------|
-----------------|-----------------|-----------------|-----------------|


-----------------|-----------------|--0----0----0----|--3---1----------|
--3----1---------|-----------------|-----------------|--------3--------|
------------2----|--2---0-0--------|-----------------|-----------------|
-----------------|-----------------|-----------------|-----------------|
-----------------|-----------------|-----------------|-----------------|
-----------------|-----------------|-----------------|-----------------|


-----------------|--1---0----------|--0--------------|-----------------|
--3----3----3----|--------1--------|-------3----1----|--1---0-0--------|
-----------------|-----------------|-----------------|-----------------|
-----------------|-----------------|-----------------|-----------------|
-----------------|-----------------|-----------------|-----------------|
-----------------|-----------------|-----------------|-----------------|


-----------------|-----------------|------0-----------|--3-------------|
--3----1---------|-----------------|--3-----3----3----|-------3--------|
------------2----|--2---2-0--------|------------------|----------------|
-----------------|-----------------|------------------|----------------|
-----------------|-----------------|------------------|----------------|
-----------------|-----------------|------------------|----------------|


--0---1-0----0----|--5----0--------|--3---5-3----3----|--5--------3----|
------------------|----------------|------------------|----------------|
------------------|----------------|------------------|----------------|
------------------|----------------|------------------|----------------|
------------------|----------------|------------------|----------------|
------------------|----------------|------------------|----------------|


--1--3--1--0---------|---------------|--------------|--------------|
----------------3----|--1------------|--------------|--------------|
---------------------|---------------|--------------|--------------|
---------------------|---------------|--------------|--------------|
---------------------|---------------|--------------|--------------|
---------------------|---------------|--------------|--------------|


--1--3--1--0---------|---------------|--3------------|--------------|
----------------3----|--1------------|---------------|--------------|
---------------------|---------------|---------------|--------------|
---------------------|---------------|---------------|--------------|
---------------------|---------------|---------------|--------------|
---------------------|---------------|---------------|--------------|


--------------|----------4----|--7---5-3---1-0-----|----------------||------||
--------------|---------------|------------------3-|--1-------------||------||
--------------|---------------|--------------------|---------------*||------||
--------------|---------------|--------------------|---------------*||------||
--------------|---------------|--------------------|----------------||------||
--------------|---------------|--------------------|----------------||------||
Suggest correction
Give kudos to tab author, rate the tab!
1 2 3 4 5
comments
print report bad tab
guest
You may want to rate the tab now too:
select rating
Wanna post a correction for this tab? Suggest correction