Oops, an error
Loading. Please wait.

Romancero Gitano Tab

270 views 1 this week
no commentswrite comment
1 2 3 4 5
3 more votes to show rating
add to favorites
launch autoscroll
font size
0
reset
how to read this tab
guitar tuner
×
Best way to learn
"Romancero Gitano"
Autoscroll
slow
fast
+/-
esc
set tempo
stop
ROMANCE - Anónimo del Siglo 19, español

Tonalidad.: Em
Compás....: 3/4

Moderately


||-7--------7--------7--------|--7--------5--------3--------|--3--------2--------0--------|
||----0--------0--------0-----|-----0--------0--------0-----|-----0--------0--------0-----|
|o-------0--------0--------0--|--------0--------0--------0--|--------0--------0--------0--|
|o----------------------------|-----------------------------|-----------------------------|
||----------------------------|-----------------------------|-----------------------------|
||-0--------------------------|--0--------------------------|--0--------------------------|

   4        4        4           4        2        2           2        1


|--0--------3--------7--------|-12-------12-------12--------|-12-------10--------8--------|
|-----0--------0--------0-----|-----0--------0--------0-----|-----0--------0--------0-----|
|--------0--------0--------0--|--------0--------0--------0--|--------0--------0--------0--|
|-----------------------------|-----------------------------|-----------------------------|
|-----------------------------|-----------------------------|-----------------------------|
|--0--------------------------|--0--------------------------|--0--------------------------|

            1        4           4        4        4           4        2        4


   1/2 C V -----------------------------------------------     C VII -------------------

|--8--------7--------5--------|--5--------7--------8--------|--7--------8--------7--------|
|-----5--------5--------5-----|-----5--------5--------5-----|-----7--------7--------7-----|
|--------5--------5--------5--|--------5--------5--------5--|--------8--------8--------8--|
|-----------------------------|-----------------------------|-----------------------------|
|--0--------------------------|--0--------------------------|-----------------------------|
|-----------------------------|-----------------------------|--7--------------------------|

   4  1  1  3  1  1  1  1  1     1  1  1  3  1  1  4  1  1     1  1  2  3  1  2  1  1  2
                                                               1


  --------------------------

|-11--------8--------7--------|--7--------5--------3--------|--3--------2--------0--------|
|-----7--------7--------7-----|-----0--------0--------0-----|-----0--------0--------0-----|
|--------8--------8--------8--|--------0--------0--------0--|--------0--------0--------0--|
|-----------------------------|-----------------------------|-----------------------------|
|-----------------------------|-----------------------------|-----------------------------|
|--7--------------------------|--0--------------------------|--0--------------------------|

   4  1  2  3  1  2  1  1  2     4        2        2           2        1
   1


|--2--------2--------2--------|--2--------3--------2--------|--0--------0--------0--------|
|-----0--------0--------0-----|-----0--------0--------0-----|-----0--------0--------0-----|
|--------2--------2--------2--|--------2--------2--------2--|--------0--------0--------0--|
|-----------------------------|--1--------------------------|--2--------------------------|
|--2--------------------------|-----------------------------|-----------2-----------------|
|-----------------------------|-----------------------------|--------------------3--------|

   4     3  4     3  4     3     4     3  4     3  4     3     3        2        4
   2                             1


|--0-------------------------||
|----------------------------||
|----------------------------o|
|----------------------------o|
|----------------------------||
|--0-------------------------||


                                                               C II --------------------

||-4--------4--------4--------|--4--------2--------0--------|-----------------------------|
||----0--------0--------0-----|-----0--------0--------0-----|--5--------4--------4--------|
|o-------1--------1--------1--|--------1--------1--------1--|-----2--------2--------2-----|
|o----------------------------|-----------------------------|--------4--------4--------4--|
||----------------------------|-----------------------------|--2--------------------------|
||-0--------------------------|--0--------------------------|-----------------------------|

   4     1  4     1  4     1     4     1  2     1        1     4  1  3  4  1  3  4  1  3
                                                               1


  --------------------------    C VII --------------------------------------------------

|-----------------------------|--9--------9--------9--------|--9-------11--------9--------|
|--4--------3--------4--------|-----7--------7--------7-----|-----7--------7--------7-----|
|-----2--------2--------2-----|--------8--------8--------8--|--------8--------8--------8--|
|--------4--------4--------4--|-----------------------------|-----------------------------|
|--2--------------------------|-----------------------------|-----------------------------|
|-----------------------------|--7--------------------------|--7--------------------------|

   4  1  3  2  1  3  4  1  3     3  1  2  3  1  2  3  1  2     3  1  2  4  1  2  3  1  2
   1                             1                             1


						  1/2 C IX -----------------

|--9--------7--------7--------|--7--------9-------11--------|-12-------12-------12--------|
|-----9--------9--------9-----|-----9--------9--------9-----|-----9--------9--------9-----|
|--------9--------9--------9--|--------9--------9--------9--|--------9--------9--------9--|
|-----------------------------|-----------------------------|-----------------------------|
|-----------------------------|-----------------------------|-----------------------------|
|--0--------------------------|--0--------------------------|--0--------------------------|

   4  3  2  1  3  2  1  3  2     1  3  2  4  3  2  3  1  1     4  1  1  4  1  1  4  1  1


  -------------------------------------------------------------------   1/2 C V --------

|-12-------11-------10--------|--9--------9--------9--------|--9--------7--------5--------|
|-----9--------9--------9-----|----10-------10-------10-----|----10--------5--------5-----|
|--------9--------9--------9--|--------9--------9--------9--|--------9--------6--------6--|
|-----------------------------|-----------------------------|-----------------------------|
|-----------------------------|--0--------------------------|--0--------------------------|
|--0--------------------------|-----------------------------|-----------------------------|

   4  1  1  3  1  1  2  1  1     1  2  1  1  2  1  1  2  1     1  2  1  3  1  2  1  1  2


   C II --------------------------------------------------

|--4--------4--------4--------|--4--------5--------2--------|--0--------0--------0--------|
|-----4--------4--------4-----|-----4--------4--------4-----|-----0--------0--------0-----|
|--------2--------2--------2--|--------2--------2--------2--|--------1--------1--------1--|
|-----------------------------|-----------------------------|-----------------------------|
|--2--------------------------|--2--------------------------|-----------------------------|
|-----------------------------|-----------------------------|--0--------------------------|

   4  3  1  4  3  1  4  3  1     4  3  1  4  3  1  1  3  1           1        1        1
   1                             1


|--0-------------------------||
|----------------------------||
|----------------------------o|
|----------------------------o|
|----------------------------||
|--0-------------------------||
Suggest correction
Give kudos to tab author, rate the tab!
1 2 3 4 5
comments
print report bad tab
guest
You may want to rate the tab now too:
select rating
Wanna post a correction for this tab? Suggest correction