Oops, an error
Loading. Please wait.

Romanza Tab

142 views 9 this week
no commentswrite comment
1 2 3 4 5
2 more votes to show rating
add to favorites
launch autoscroll
font size
0
reset
how to read this tab
guitar tuner
×
Best way to learn
"Romanza"
Autoscroll
slow
fast
+/-
esc
set tempo
stop
ps aqui se las dejo me costo trabajo sacarla, espero y les guste

e|--7--7--7----7--5--3----3--2--0----0--3--7----
B|---0--0--0----0--0--0----0--0--0----0--0?-0---
G|----0--0--0----0--0--0----0--0--0----0--0--0--
D|----------------------------------------------
A|----------------------------------------------
E|--0----------0----------0---------------------

e|--12--12--12----12--10--8----8--7--5----5--7--8----
B|----0---0---0-----0---0--0----5--5--5----5--5--5---
G|-----0---0---0-----0---0--0----5--5--5----5--5--5--
D|---------------------------------------------------
A|---------------------------------------------------
E|--0-------------0------------0----------0----------

e|--7--8--7----11--8--7----7--5--3----3--2--0----
B|---7--7--7-----7--7--7----0--0--0----0--0--0---
G|----8--8--8-----8--8--8----0--0--0----0--0--0--
D|-----------------------------------------------
A|-----------------------------------------------
E|--7-----------7----------0----------0----------

e|--2--2--2----2--3--2----0--0--0------0---------
B|---0--0--0----0--0--0----0--0--0---------------
G|----2--2--2----2--2--2----0--0--0--------------   X2
D|------------------------2----------------------
A|--2----------1-------------2-------------------
E|------------------------------3------0---------

e|--4--4--4----4--2--0---------------------------
B|---0--0--0----0--0--0----5--4--4----4--3--4----
G|----1--1--1----1--1--1----2--2--2----2--2--2---
D|---------------------------4--4--4----4--4--4--
A|-------------------------0----------0----------
E|--0----------0---------------------------------

e|--9--9--9----9--11-----9----9--7--7----7--9--11---
B|---7--7--7----7---------7----9--9--9----9--9--9---
G|----8--8--8----8---11-8--8----9--9--9----9--9--9--
D|--------------------------------------------------
A|--------------------------------------------------
E|--7----------7--------------0----------0----------

e|--12--12--12----12--11--10----9--9--9----9--7--5----
B|----9---9---9-----9---9---9----5--5--5----5--5--5---
G|-----9---9---9-----9---9---9----6--6--6----6--6--6--
D|----------------------------------------------------
A|------------------------------0----------0----------
E|---0-------------0----------------------------------

e|--4--4--4----4--5--2----0--0--0----0---------
B|---5--5--5----4--4--4----0--0--0-------0--0--
G|----4--4--4----2--2--2----1--1--1------------   X2
D|------------------------2--------------------
A|--2----------2-------------2-----------------
E|------------------------------4----0---------

e|--0----
B|-------
G|-------
D|-------
A|-------
E|--0----
Suggest correction
Give kudos to tab author, rate the tab!
1 2 3 4 5
comments
print report bad tab
guest
You may want to rate the tab now too:
select rating
Wanna post a correction for this tab? Suggest correction