Oops, an error
Loading. Please wait.

Rondo En Am Tab

12 views 1 this week
no commentswrite comment
1 2 3 4 5
3 more votes to show rating
add to favorites
launch autoscroll
font size
0
reset
how to read this tab
guitar tuner
×
Best way to learn
"Rondo En Am"
Autoscroll
slow
fast
+/-
esc
set tempo
stop
Esta es mi primer tab y espero que mi esfuerzo les guste.
Me parece que todo esta correcto.


Rondo

E||------------|----------------|------------------|--0--0--3-1-0---|
B||------------|--1--1-3-0--0-1-|----------------1-|--------------3-|
G||----------2-|----------------|--2-----------2---|----------------|
D||--------2~--|----------------|----2---2---2-----|--------0-------|
A||------------|--0-------------|--0---3---0-------|--3-------------|
E||------------|---------0------|------------------|----------------|


-----------0-3-|--3-1-0-1-1-0---0-|--0---------------|
--1-----0------|--------------4---|----3-2-3-3-1-0-1-|
--2-----1------|------------------|------------------|
--2-----2------|--0---------------|------------------|
---------------|----------3-------|--2-------0-------|
-----0---------|------------------|------------------|


------------------|
--1-0-3-0---1-0---|
----------2-----1-|
--0-------2-------|
------------------|
--------------0---|

--------------||---------0------|-------0-5-8-7-5-|--5-4-7-5-4-1-0---|
--------------||---0---1----3-0-|-----1-----------|----------------3-|
--2----------*||*--1------------|--2--------------|------------------|
----2---2----*||*---------------|-----------------|------------------|
--0---3---0---||----------------|--0--------------|------------------|
--------------||---0------------|-----------------|--0---------------|


-----------0--|--1-0-1-5-4-2-4-7-|--5-4-5-7-5--8--|--8--7--4-5-7-4-|
--3---2-1-----|------------------|----------------|--6-----3-------|
--------------|------------------|----------------|--7-----4-------|
--------------|--0-------2-------|--3-------------|--0-----2-------|
--0-----------|------------------|----------------|----------------|
--------------|------------------|----------------|------------0---|


--5--8--5-----||--12----10----------|-----5--------|--5--5-4-5-4-5-6-|
-----5--------||--10-------13-12-13-|-----5-----5--|-----------------|
--5-----5----*||--9-----------------|-----5--------|--5--5-4-5-4-5-6-|
-------------*||--10----------------|--------------|-----------------|
--0-----------||--0-----------------|--0-----0-----|--0--------------|
--------------||--------------------|--------------|-----------------|


--7---5-4----|--13---12-10----------|--4--7-----5--|--4-----------|
-------------|--12---------13-12-10-|--5-----4-----|--5--6--5-----|
--7---5-4----|--13------------------|--4-----5-----|--4--7--5--7--|
-------------|--12------------------|--------------|-----6--7--6--|
-------------|----------------------|--------------|-----------7--|
--0----------|----------------------|--------------|--------------|


-------------|------5---8---12---|--12----------10-7---|
-------------|----5---5---5------|-------------------9-|
--7---6-5----|------5---5------9-|-----9----9-9-9--7-9-|
--7----------|--------------10---|-------12------------|
--0----------|--0----------------|---------------------|
-------------|-------------------|--0------------------|


------5---8---12-0-|
----5---5---5------|
------5---7--------|
--------------12---|
--0----------------|
-------------------|


--12-----------10-7---|--5-----------5---|--7---7---7---7---|
--------------------9-|----5---5---5---5-|----6---6---6---6-|
-----9----9----9--7-9-|------5-------5---|--0---7---7---7---|
-------12---12--------|----------7-------|------------------|
----------------------|--0---------------|------------------|
--0-------------------|------------------|------------------|

--8-------10------|
------8-8-----8-8-|
--9-------10------|
--10------9-------|
------------------|
------------------|


--12---12-10----------|------13-12-10----------|-----12-10-8---------|
-------------13-12-13-|--10-----------13-12-10-|--8----------12-10-8-|
--9-------------------|--10--------------------|--9------------------|
--10------------------|------------------------|---------------------|
----------------------|--8---------------------|---------------------|
----------------------|------------------------|--8------------------|


---------10----8---7-|--8--------|--12----15----|--9----------|
--10--10----8----6---|--5--------|--11----------|--8------10--|
--10--10----9----7---|--5--------|--12----------|--9----------|
-----------------5---|-----------|--11----------|--7----------|
--8---8-----10-------|-----------|--------------|-------------|
---------------------|-----------|--------------|-------------|


--10---------12-------|--13--------12-10--|--8-----17----|
----------10-------10-|---------10--------|--10----------|
------10--------10----|------10-------10--|--8-----------|
--12---------10-------|--12---------------|--------------|
----------------------|-------------------|--------------|
----------------------|-------------------|--------------|


--11----------|
--10------12--|
--11----------|
--9-----------|
--------------|
--------------|


--12--12--12-11-9-11-|--12----12--13-|--13-------------|
--9-------10---------|--9------------|--------9--9--9--|
--9-------11---------|--9------------|-----13-7--7--7--|
---------------------|---------------|-----------------|
---------------------|---------------|--------7--7--7--|
---------------------|---------------|-----------------|

--5-4-5-7-8-10-12-13-|
---------------------|
--5------------------|
--7------------------|
---------------------|
---------------------|


--13-------------|----------7-8-8-7----|-----------5-3-1-|
--------9--9--9--|--10-9-10---------10-|--10-------------|
-----13-7--7--7--|---------------------|------5--5-------|
-----------------|--10-----------------|------7--7-------|
--------7--7--7--|---------------------|------8--8-------|
-----------------|---------------------|-----------------|

--1-------1-0---|
-----1--1-----4-|
-----2--2-------|
-----3--3-------|
----------------|
----------------|

--------------|--0-------0-3-7-3-0-10-7-0-|
--4--4--4--4--|--------0------------------|
-----2--2--2--|--1---1--------------------|
--------------|----2----------------------|
--------------|---------------------------|
-----1--1--1--|--0------------------------|

--13-12-10--------------------------|
-----------13-12-10---------------0-|
--------------------12-10-9---------|
----------------------------12-10---|
------------------------------------|
------------------------------------|

--------0-5-7-8-7-5-4-5---|------0-0---0-----0-----0-|
------1-----------------5-|--------------3-----------|
----2---------------------|--5-2-----2---------5-2---|
--------------------------|----------------5---------|
--0-----------------------|--0-----3-----2-----0-----|
--------------------------|--------------------------|


----------0-3-7-3-0-10-------|--13-12-10-------------------------|
--0-----0--------------12----|-----------13-12-10--------------0-|
--1---1-------------------12-|--------------------12-10-9----5---|
----2------------------------|----------------------------12-----|
-----------------------------|-----------------------------------|
--0--------------------------|-----------------------------------|


--------5-8-8-7---------0-|--------5-8-8-7---------0-|
------5-----------5-------|------5-----------5-------|
----5-----------7-----7---|----5-----------7-----7---|
--7-----------5-----------|--7-----------6-----------|
--------------------7-----|--------------------7-----|
--------------------------|--------------------------|


------0-5-8-8-------------|--------1-5-5-3-----------|
--------------8-0-------1-|------1-----------1---0-1-|
----2-------------5---3---|----2-----------3---------|
--3-----------------------|--3-----------2-----------|
--------------7-----3-----|--------------------3-----|
--------------------------|--------------------------|


--------1-3-5-5-3---0-----|----------------------------|
------1-----------6---3-1-|--0-1-3-1-0-----------------|
----2---------------------|------------2-0-2-0---------|
--3-----------------------|--------------------3-2--0--|
--------------------------|----------------------------|
--------------------------|----------------------------|


--------0-3-3-------------|----------3-3-------3-5-5-|
------1-----------0-6-8-8-|--------5---------2-------|
----0-----------0---------|------5---------2---------|
--------------------0-----|----5---------------2-----|
--3-----------2-----------|--------------4-----------|
--------------------------|--8-----------------------|


--------1-5-5-------3-5-5-|--------1-5-5-------5-7-7-|
------3-----------2-------|------3-----------4-------|
----2-----------2---------|----2-----------4---------|
--0-----------------2-----|--0-----------1-----4-----|
--------------4-----------|--------------------------|
--------------------------|--------------------------|

--------4-7-7-------5-7-7-|--------4-7-7-------5-7-7-|
------5-----------4-------|------5-----------4-------|
----4-----------4---------|----4-----------4---------|
--------------------4-----|--------------------4-----|
--7-----------6-----------|--7-----------6-----------|
--------------------------|--------------------------|

--4------4-4-5-7-7-8-10-|
-----6-7----------------|
------------------------|
--2---------------------|
------------------------|
------------------------|

--10--10--8---8---|--7-0-2-3-3-5-7-7-8-10-|
------9---10--10--|--9--------------------|
--------------8---|--9--------------------|
----------7-------|-----------------------|
------7-----------|-----------------------|
------------------|-----------------------|

--10-------------8-10-10-12-13-|
--9---8-10-12-12---------------|
-------------------------------|
-------------------------------|
--7----------------------------|
-------------------------------|

--13--------|--13--12-10-12--12--|--10--12-10-8--8--|--7--7--------|
--12--------|--12------------10--|------------------|--6--6--9--9--|
------------|--------------------|--9------------9--|--7--7--7--7--|
--12--------|--12------------10--|--9------------7--|--0-----9--9--|
--11--------|--------------------|------------------|--------7-----|
------------|--------------------|------------------|-----7-----0--|


--5-----------5---|--4-----5-7---7---|--5---8-------7-5-|
------------------|------------------|------------------|
--5-----------5---|--4-----5-7---7---|--5---9-------7-5-|
------------------|------------------|------------------|
--0-0-0-0-0-0-0-0-|--0-0-0-0-0-0-0-0-|----0---0-0-0-----|

------------------|------------------|------------------|


--4---4---5---7---|
--0---------------|
------4---5---7---|
------------------|
--0-0-0-0-0-0-0-0-|
------------------|


--7---5-------5---|--4-----5-7---7---|--5---8-------7-5-|
--0---0---1---3---|------------------|------------------|
------------------|--2-----5-7---7---|--5---7-------7-5-|
------------------|------------------|------------------|
--0-0-0-0-0-0-0-0-|--0-0-0-0-0-0-0-0-|--0-0-0-0-0-0-0-0-|
------------------|------------------|------------------|


--4---4---5---7---|
------------------|
------------------|
------------------|
--0-0-0-0-0-0-0-0-|
------------------|

--5-5-5-5-5-5-5-5-|--5-5-5-5-5-5-5-5-|--5-5-5-5-5-5-5-5-|
------------------|------------------|------------------|
--5-5-5-5-5-5-5-5-|--5-5-5-5-5-5-5-5-|--5-5-5-5-5-5-5-5-|
------------------|----------3-------|------------------|
--0-------------3-|--5-----7-----5---|--6---7---------3-|
------------5-7---|------------------|------------5-7---|

--5-5-5-5-5-5-5-5-|
------------------|
--5-5-5-5-5-5-5-5-|
----------3-------|
--5-----7-----7---|
------------------|


--5------8-7-5----|--8-7-5-8-7-5-8-7-5-8-7-5-|--4----13-13-13-|
------------------|--1-----------------------|----------------|
--5---------------|--------------------------|--4-------------|
------------------|--1-----------------------|--2-------------|
--6---------------|--------------------------|----------------|
------------------|--------------------------|----------------|


--13-10-10-10-10-7-7-7-|--7-4-4-4-4-1-1---|------------------|
-----------------------|----------------3-|--3-0-0-----------|
-----------------------|------------------|--------1-1-------|
-----------------------|------------------|------------3-3-0-|
-----------------------|------------------|------------------|
-----------------------|------------------|------------------|


--------------------------|--------------------------|
--------0-----------0-----|--------0-----------0-----|
------1---1-------1---1---|------1---1-------1---1---|
--0-3-------3-0-3---0---3-|--0-3-------3-0-3---0---3-|
--------------------------|--------------------------|
--------------------------|--------------------------|


--------------------------|--------------------------|
--------1-----------1-----|--------3-----------3-----|
------2---2-------0---2---|------1---1-------1---1---|
----2-------2---2-------2-|----2-------2---2-------2-|
--3-----------3-----3-----|--2-----------2-----2-----|
--------------------------|--------------------------|


--------------------0-----|--------1-----------3-----|
--------1---------2---2---|------3---3-------2---2---|
------2---2-----3-------3-|----2-------2---2-------2-|
----2-------2-------------|--------------------2-----|
--0-----------------------|--------------------------|
--------------3-----------|--1-----------0-----------|


--------1-----------1-----|------2-5-2-------2-5-2---|
------3---3-------3---3---|------------1---1-------1-|
----2-------2---2-------2-|----2---------------------|
--0-----------0-----0-----|--1-----------1-----0-----|
--------------------------|--------------------------|
--------------------------|--------------------------|


------0-4-0-------0-5-0---|------0-4-0-------0-5-0---|
----0-------0---1---------|----0-------0---1-------1-|
------------------------5-|--------------------------|
--2-----------2-----------|--2-----------2-----------|
--------------------------|--------------------------|
--------------------------|--------0-----------0-----|


------0-4-0-------0-5-0---|--4--------|
----0-------0---1-------1-|--5--------|
--------------------------|--4--------|
--2-----------2-----------|--2--------|
--------------------------|-----------|
--------0-----------0-----|-----------|

--0---2-0-4-2-5-4-|--7-5-8-7-10-8-12-10-|
----4-------------|---------------------|
------------------|---------------------|
------------------|---------------------|
------------------|---------------------|
------------------|---------------------|

--13-12-10-12-10-8-7-8-|--7-5-4-5-3-1-0-1-|--3-1-0-1-0---1---|
-----------------------|------------------|------------3---3-|
-----------------------|------------------|------------------|
-----------------------|------------------|------------------|
-----------------------|------------------|------------------|
-----------------------|------------------|------------------|


------------------|-----------|------------------|
--1-0-3-0-----0---|-----------|------------------|
----------2-1---1-|-----------|--------------4---|
------------------|--2--------|--2-1-4-2-6-4---6-|
------------------|-----------|------------------|
------------------|-----------|------------------|

-----------------------|
--0------0-------------|
-----------------------|
----7-10---12-10-14-12-|
-----------------------|
-----------------------|


----------------------|----------------------|------------------|
----------------------|----------------------|------------------|
--10-9-8-9-9----------|----------------------|----------------5-|
-------------12-11-12-|--12-10-9-10-10-9-8-9-|--7-----------7---|
----------------------|----------------------|----7---7---7-----|
----------------------|----------------------|------8---5-------|


--0--0--3-1-0---|-----------0-3-|--3-1-0-1-1-0---0-|
--------------3-|--1-----0------|--------------4---|
----------------|--2-----1------|------------------|
--------0-------|--2-----2------|------------------|
--3-------------|---------------|--2-------0-------|
----------------|-----0---------|------------------|

--0---------------|
----3-2-3-3-1-0-1-|
------------------|
------------------|
--2-------0-------|
------------------|


------------------|---------------|--------0------|-------0-5-8-7-5-|
--1-0-3-0---1-0---|---------------|--0---1----3-0-|-----1-----------|
----------2-----1-|--2------------|--1------------|--2--------------|
--0-------2-------|----2---2------|---------------|-----------------|
------------------|--0---3---0----|---------------|--0--------------|
--------------0---|---------------|--0------------|-----------------|


--5-4-7-5-4-------|-----------0--|--1-0-1-5-4-2-4-7-|--5-4-5-7-5--8--|
------------6-5-3-|--3---2-1-----|------------------|----------------|
------------------|--------------|------------------|----------------|
------------------|--------------|--0-------2-------|--3-------------|
------------------|--0-----------|------------------|----------------|
--0---------------|--------------|------------------|----------------|


--8--7----5-7-4-|--5--8--5----|--3----7----|--8-------5-7-8-10-|
--6-----9-------|-----5-------|--5----6----|--------8----------|
--7-----7-------|--5-----5----|--5----7----|--9----------------|
--0-----9-------|-------------|-------5----|--10---------------|
--------7-------|--0-----0----|--3---------|-------------------|
------------0---|-------------|------------|-------------------|


--12---------12-10-8-|--13---------13-10-7-|--------------|
------8---8----------|------8---8----------|--8--8--7--6--|
------9---9----------|------10--10---------|-----0-----4--|
------10--10---------|------9---9----------|--------7-----|
---------------------|---------------------|--------------|
---------------------|---------------------|--------------|

------8-12-10-8-7-5-|
--5-8---------------|
--5-----------------|
--------------------|
--------------------|
--------------------|


--5-3-2-3-2-3-1-3-|-------8-12-10-8-7----|--5-3-2-3-2-3-1-3-|
--------------0---|-----8-------------10-|--------------0---|
------0---2-------|--9-------------------|------0---2-------|
------------------|--10------------------|------------------|
------------------|----------------------|------------------|
------------------|----------------------|------------------|


---------8-12-12------12-----10-|--------5-8-8-----5-----7-|
-------8------------------------|------5-------------------|
-----9--------------9------7----|----5-----------5-----4---|
--10-------------10------9------|--7-----------7-----5-----|
--------------------------------|--------------------------|
--------------------------------|--------------------------|


----------5-5-----5-----3-|----------1-1-----1-----0-|
--------6-----------------|--------3-----------------|
------5---------2-----0---|------2-------------------|
----7---------3-----2-----|--0-3---------0-3-----2---|
--8-----------------------|--------------------3-----|
--------------------------|--------------------------|


------------------|
--3-----------0---|
----0---0---0---0-|
------4---4---3---|
--2---------------|
--------------3---|


--------------0---|--3---------------|--------------0---|
--1-----1-3-------|------------------|--1---1---3-------|
------0-----0-0-0-|----0---0---0---0-|----0---0---0-0-0-|
----2-----3-------|--0---4---4---3---|--2---2---3-------|
--3-------2---3---|------------------|--3-------2---3---|
------------------|--3-----------3---|------------------|


-----5-3-0--5-3-|
--3------1------|
--4-------------|
----------------|
----------------|
--3------3------|


----3-2-3-0-3-2-3-|-------------|--0-----0-1-2-3-|----------------|
--3-------1-------|-------3--3--|----------------|--1-----3-1-0-1-|
--4---------------|-------4--4--|-----0------0---|-----0------0---|
------------------|-------5--5--|--2-----2-------|--2-----2-------|
------------------|-------------|--3-------------|--3-------------|
--3-------3-------|--3----------|----------------|----------------|


--------0--1--|--------0--1--|--3-----0-----|--5-----3--3--|
--3--3--------|--3--3--------|-----------1--|-----1-----2--|
-----0-----0--|-----0-----0--|-----0--------|--2-----2-----|
--2-----3-----|--3-----3-----|--2--------2--|--3-----------|
--2-----------|--2-----------|--3-----------|--------0-----|
--------------|--------------|--------------|--------------|


--2-----1--1--|
-----3-----0--|
--2-----0-----|
--0-----------|
--------------|
--------3-----|


--0--8-----5--|--------------------------|--0------0-1-2-3-|
--1-----3-----|--1---3---0------0-1-3----|-------------0---|
--------------|--------5----0-2----------|-------0---------|
--------3-----|--2-------0---------------|-----2---2-------|
--3-----------|--------------------------|--3--------------|
--------1-----|--3-------3---------------|-----------------|

----------------|
--1-------3-1-1-|
--------0---0---|
-----2----2-----|
--3-------------|
----------------|


--------0--1--|--3---0------|--5-----3--3--|-----10--7--15--|
--3--3--------|--------1----|-----------2--|--7------8------|
-----0-----0--|------0------|--2--5--2-----|--7-------------|
--3-----3-----|--2-----2----|--3-----------|--0-------------|
--2-----------|--3----------|--------0-----|----------------|
--------------|-------------|--------------|----------------|


--8-------0--7---|
--8---10--8------|
------10--0--10--|
--10---------5---|
------8----------|
-----------------|


----0---8-12-10-8-7-8---0---|----1-3---1-3---1-3---1-3-|
--1---8---------------8---1-|--0-----3-----0-----0-----|
----------------------------|--------------------------|
----------------------------|--------------------------|
----------------------------|--------------------------|
----------------------------|--------------------------|


------0-5-8-7-5-4-5-0-----|------0-----0-----0-----0-|
----1-----------------1---|----3---0-3-----3-----3---|
--2---------------------2-|--1-----------------------|
--------------------------|--------------6-----2-----|
--------------------------|--------------------------|
--------------------------|--------------------------|


--------1-5-3-1-0-1-------|--------------------------|
------1-------------1-----|------1-----1-----1-----1-|
----2-----------------2---|----3---0-3-----3-----3---|
--3---------------------3-|--2-----------2-----------|
--------------------------|--------------------3-----|
--------------------------|--------------------------|


--------1-5-5-------2-5-5-|--------3-7-7-------4-7-7-|
------1-----------1-------|------3---------0---------|
----2-----------2---------|----4-------------7-------|
--3-----------------------|--5-----------------------|
--------------5-----------|--------------7-----------|
--------------------------|--------------------------|


--------5-8-8-------7-10-10-|--------9-12-12----------12-15-15-|
------5-----------6---------|------8---------------11----------|
----5-----------7-----------|----9--------------12-------------|
--7-----------6-------------|--8-------------11----------------|
----------------------------|----------------------------------|
----------------------------|----------------------------------|


-----------10-13-12-10-9-10---------|--------7-10-10--------10-13-13-|
--------10------------------10------|------6--------------9----------|
-----10------------------------10-7-|----7-------------10------------|
--12--------------------------------|--6-------------9---------------|
------------------------------------|--------------------------------|
------------------------------------|--------------------------------|


---------8-11-10-8-7-8---0---|--------4---------------0-|
-------8---------------8-----|------4---4-------4---3---|
-----8---------------------5-|----5-------5---5---------|
--10-------------------------|--6-----------6-----5-----|
-----------------------------|--------------------------|
-----------------------------|--------------------------|


--------5-8-10-11-10----10-8-7-|--------3-----------------|
------4--------------12--------|------3---3-0---0-3---0-3-|
----5--------------------------|----4---------0-----0-----|
--4----------------------------|--5-----------------------|
-------------------------------|--------------------------|
-------------------------------|--------------------------|


--------3-6-8-9-8-6-9-8-6-|--------------------------|
------2-------------------|--------6---------1-----1-|
----3---------------------|------5---5-----2-----2---|
--2-----------------------|----7-------7-3-----2-----|
--------------------------|--8-----------------------|
--------------------------|--------------------------|


----------1-5---------1-5-|----------1-3-5-3-1-0-----|
--------3-----------3-----|--------3-------------3-1-|
------2-----------2-------|------2-------------------|
--0-3---------0-3---------|--0-4---------------------|
--------------------------|--------------------------|
--------------------------|--------------------------|

------------7-7-7-|
--0---------6-6-6-|
--0-0-0-0-0-0-0-0-|
------------------|
------------------|
------------------|


--8-------2-2-2-|--3--------------|------------------|
--5-------1-1-1-|--0--------0-0-0-|--1---------------|
--0-0-0-0-0-0-0-|--0--------------|------------------|
----------------|-----------3-3-3-|--2---------4-4-4-|
----------------|-----------------|------------3-3-3-|
----------------|-----3-3-3-3-3-3-|--3-3-3-3-3-3-3-3-|


------------------|
------------------|
--0-------0-------|
------4-------4---|
--2---3---2---3---|
--3-3-3-3-3-3-3-3-|


--------3-2-3-5-|--3-----------|--------------0-1-|--0-----------|
----------------|-----0--0--0--|--3--1----4-4-----|--------------|
--0-------------|--------------|------------------|-----1--1--1--|
----------------|-----3--3--3--|--2---------------|-----0--0--0--|
--2--2----------|--------------|--3---------------|--------------|
--3-------------|-----3--3--3--|------------------|-----0--0--0--|


-----------------|------------------|------------------|-------------|
--0------0-------|--1-------0-------|--1-------0-------|--1----0-----|
-----2-----2-1-2-|------------2-1-2-|------------2-1-2-|----------2--|
-----------------|-----3--3---------|-----2--2---------|--1----------|
--3--------------|------------------|------------------|-------------|
--5--------------|-----1--1---------|-----0--0---------|--1----------|


------------0-----------3-|------------5-----------2-|
--------0---------0-3-0---|--------1-----------1-----|
------1---1---------------|------2---2-------2---2---|
----2-----------3---------|----2-----------1---------|
--------------------------|--------------------------|
--0-----------0-----------|--0-----------0-----------|


------------0-----------3-|------------5-----------2-|
--------0---------0-3-0---|--------1-----------1-----|
------1---1---------------|------2---2-------2---2---|
----2-----------2---------|----2-----------1---------|
--------------------------|--------------------------|
--0-----------0-----------|--0-----------0-----------|

-------0--0-2-4-5-|
-------0----------|
-------1----------|
-------2----------|
------------------|
--0---------------|


--7------4-5-7-8-|--10------7-8-10-12-|--13----13--12--|
-----------------|--------------------|----------------|
-----------------|--------------------|----------------|
-----------------|--------------------|----------------|
-----------------|--------------------|----------------|
-----------------|--------------------|----------------|


--10-12-13-12-10-12----10-|--------10-8-7-8-5-7-|--4-5-6-7-5-4-----|
--------------------13----|--12-13--------------|--------------6-5-|
--------------------------|---------------------|------------------|
--------------------------|---------------------|------------------|
--------------------------|---------------------|------------------|
--------------------------|---------------------|------------------|


----1-------------|------------------|--------------|
--3---0-3---0-----|------------------|----------0---|
----------1-----1-|------------------|--------1---1-|
--------------3---|--0-3---0---------|------0-------|
------------------|------2-----2---3-|--------------|
------------------|----------4---1---|--0-4---------|

--0-------4---0--7---3---|
------0------------------|
-------------------------|
-------------------------|
-------------------------|
-------------------------|


--10-----------|------------------|------------------|
-------------0-|--3-0-1---0---0---|------------------|
---------------|--5-----2---2---1-|--2-------------5-|
-------4-6-7---|------------------|--------------7---|
-----7---------|--0---------------|--0-7---7-0-7-----|
---------------|----------0-------|------8-----------|
--------3-1-0---|
--5--5--------3-|
----------------|
--------0-------|
--3-------------|
----------------|


----------0-3-|--1-0-1---0---0---|--0-----------------|
--1----0------|--------3---4---1-|----3-2-3-0-1-0-1---|
--2----1------|------------------|------------------2-|
--2----2------|--0---------------|--------------------|
--------------|----------3-------|--2---------0-------|
--------------|------------------|--------------------|

------------------|
--1-0-3-0---1-0---|
----------2-----1-|
--0-------2-------|
------------------|
--------------0---|


---------------|--------0------|--------0-5-8-7-5-|--4-5-6-7-4-0-1---|
---------------|--0---1----3-0-|------1-----------|----------------3-|
--2------------|--1------------|----2-------------|------------------|
----2---2------|---------------|------------------|------------------|
--0---3---0----|---------------|--0---------------|--5---------------|
---------------|--0------------|------------------|----------0-------|


-----------0--|--7-5-4-5-5-2-4-7-|--5---5-7-5--8--|--8--7--5-2-3-7-|
--3---2-1-----|------------------|----9-----------|--8-----0-------|
--------------|------------------|----------------|--7-----7-------|
--------------|--0---------------|----------------|----------------|
--0-----------|----------7-------|--8-------------|--5-----7-------|
--------------|------------------|----------------|------------0---|


--5--8--5--0--|--------5-5-4-2-4-7-|--7-5-4-5-7-5--8--|
--1--5--1-----|--6-5-6-------------|------------------|
--------------|--------------------|------------------|
--------------|--------------------|------------------|
--------------|--5-------7---------|--8---------------|
--5-----------|--------------------|------------------|

--8--7-5-7--10--|
--6-------------|
--7-------------|
----------------|
----------------|
----------------|

--10--8-7-8--10--|--12--11-9-11--11--|--10----8----|--8--7--5--4--|
-----------------|--10---------------|-------------|--6--6--5--3--|
--9--------------|--11---------------|--10----9----|--7--7--5--4--|
--10-------------|--9----------------|--6-----7----|-----0--------|
-----------------|-------------------|-------------|--8-----7-----|
-----------------|-------------------|-------------|-----------0--|


-----5-----5--|--4-----5-7---7---|--5---8-------7-5-|
--------------|------------------|------5-----------|
-----5-----5--|--4-----5-7---7---|--5-----------7-5-|
--------------|------------------|------------------|
--0--0--0--0--|--0-0-0-0-0-0-0-0-|--0-0-0-0-0-0-0-0-|
--------------|------------------|------------------|

--4---4---5---7---|
------------------|
--4---4---5---7---|
------------------|
--0-0-0-0-0-0-0-0-|
------------------|


--5-------------4--|--5-------------4--|--5----5----|--5----10----|
----------------3--|----------------3--|------------|-------9-----|
--5----------------|--5----------------|--5----5----|--5----7-----|
-----------0-2-----|-----------0-2-----|------------|-------6-----|
--0--0-2-3---------|--0--0-2-3---------|--0---------|-------7-----|
----------------0--|----------------0--|-------5----|--5----0-----|

--5--------|
-----------|
--5--------|
--7--------|
--0--------|
-----------|


----------||
----------||
----------||
----------||
----------||
----------||
Suggest correction
Give kudos to tab author, rate the tab!
1 2 3 4 5
comments
print report bad tab
guest
You may want to rate the tab now too:
select rating
Wanna post a correction for this tab? Suggest correction