Oops, an error
Loading. Please wait.

Saltarello Tab

157 views 6 this week
no commentswrite comment
1 2 3 4 5
3 more votes to show rating
add to favorites
launch autoscroll
font size
0
reset
how to read this tab
guitar tuner
×
Best way to learn
"Saltarello"
Autoscroll
slow
fast
+/-
esc
set tempo
stop
Legend
------

 h  = hammer-on
 p  = pull-off
 b  = bend
 r  = bend release
 /  = slide up/down
<5> = natural harmonic
[5] = artifical harmonic
 ~  = vibrato
 tr = trill


#Tabbed by Greg Motlasz <rd2ruin@ Comments and corrections are welcome

Salterello
Vincente Galilei

Drone the lower bass notes.  3/4 Timing and DROP D Tuning ... I forgot
to add that to the tab itself.


E|---------------------|---------------------|-------0---1------3---|---5---
B|---------------------|---------------------|---3------------------|-------
G|---------------------|---------------------|----------------------|-------
D|-----------------0---|-----------------0---|------------------0---|-------
A|----------0----------|----------0----------|-----------0----------|-------
E|---0-----------------|---0-----------------|---0------------------|---0---


E|-------------6---|---3------0------5---|---1-----------------|-----------
B|-----------------|---------------------|---------------------|---5---3---
G|-----------------|---------------------|---------------------|-----------
D|-------------0---|-----------------0---|-----------------0---|-----------
A|------0----------|----------0----------|----------0----------|-----------
E|-----------------|---0-----------------|---0-----------------|---0-------


E|-------------|---------------------|-------0---1------3---|---5----------
B|---5---6/8---|---3-----------------|---3------------------|--------------
G|-------------|---------------------|----------------------|--------------
D|---------0---|-----------------0---|------------------0---|--------------
A|---0---------|----------0----------|-----------0----------|----------0---
E|-------------|---0-----------------|---0------------------|---0----------


E|------6---|---3------0------5---|---1-----------------|-----------------
B|----------|---------------------|---------------------|---5---3---5---6/
G|----------|---------------------|---------------------|-----------------
D|------0---|-----------------0---|-----------------0---|-----------------
A|----------|----------0----------|----------0----------|-----------0-----
E|----------|---0-----------------|---0-----------------|---0-------------


E|-------|----------3---1---0-------|-------------------0---1---|----------
B|---8---|---3------------------3---|---1---0---1---3-----------|----------
G|-------|--------------------------|---------------------------|----------
D|---0---|------------------0-------|-------------------0-------|----------
A|-------|----------0---------------|-----------0---------------|----------
E|-------|---0----------------------|---0-----------------------|---0------


E|--------------|---1------0----------|---1-----------------|---1------0---
B|--------------|-----------------3---|---------------------|--------------
G|--------------|---------------------|---------------------|--------------
D|----------0---|-----------------0---|-----------------0---|--------------
A|---0----------|----------0----------|----------0----------|----------0---
E|--------------|---0-----------------|---0-----------------|---0----------


E|----------|---5-----------------|---1------0----------|---5-------------
B|------3---|---------------------|-----------------3---|-----------------
G|----------|---------------------|---------------------|-----------------
D|------0---|-----------------0---|-----------------0---|-----------------
A|----------|----------0----------|----------0----------|----------0------
E|----------|---0-----------------|---0-----------------|---0-------------


E|---3---|---3------0----------1---|---------------------|---3---1---0---
B|-------|-------------------------|---3-----------------|---------------
G|-------|-------------------------|---------------------|---------------
D|---0---|-----------------0-------|-----------------0---|---------------
A|-------|----------0--------------|----------0----------|-----------0---
E|-------|---0---------------------|---0-----------------|---0-----------


E|----------|---1-----------------|---3---1---0----------|---5-------------
B|------3---|---------------------|------------------3---|-----------------
G|----------|---------------------|----------------------|-----------------
D|------0---|-----------------0---|------------------0---|-----------------
A|----------|----------0----------|-----------0----------|----------0------
E|----------|---0-----------------|---0------------------|---0-------------


E|-------|-------------------3---1---|---0-----------------------|-------
B|-------|---5---3---5---6-----------|-------3---1---3---5---6---|---3---
G|-------|---------------------------|---------------------------|-------
D|---0---|-------------------0-------|-------------------0-------|-------
A|-------|-----------0---------------|-----------0---------------|-------
E|-------|---0-----------------------|---0-----------------------|---0---


E|-----------------|---------------------|----------------------|----------
B|-----------------|---------------------|----------------------|----------
G|-----------------|---------------------|------------------0---|---2------
D|-------------0---|-----------------0---|---0---2---4------0---|----------
A|------0----------|----------0----------|-----------0----------|----------
E|-----------------|---0-----------------|---0------------------|---0------


E|--------------|---------------------|---------------------|---------------
B|--------------|---------------------|---------------------|---------------
G|----------4---|---0-------------2---|---------------------|---------------
D|----------0---|----------2------0---|---4-------------0---|---2---0---2---
A|---0----------|----------0----------|----------0----------|---------------
E|--------------|---0-----------------|---0-----------------|---0-----------


E|---------------|-----------------------|---------------------------|---
B|---------------|-----------------------|---------------------------|---
G|---------------|-----------------------|---------------------------|---
D|---4---5---2---|---4---5---4---2---0---|---------------0---2---4---|---
A|---------------|-----------------------|---3---2---3---------------|---
E|---------------|---0-------------------|---------------------------|---


E|---------------------|---------------------|---------------------|-------
B|---------------------|---------------------|---------------------|-------
G|---------------------|---------------------|---------------------|-------
D|---0-------------0---|---4------2------0---|---4-------------0---|---4---
A|----------0----------|----------0----------|----------0----------|-------
E|---0-----------------|---0-----------------|---0-----------------|---0---


E|-----------------|---------------------|---------------------|-----------
B|-----------------|---------------------|---------------------|-----------
G|-----------------|---2-----------------|---------------------|---2---0---
D|------2------0---|-----------------0---|---4------2------0---|-----------
A|------0----------|----------0----------|----------0----------|-----------
E|-----------------|---0-----------------|---0-----------------|---0-------


E|---------------|---------------------------|---------------------|-------
B|---------------|---------------------------|---------------------|-------
G|---------------|---------------------------|---------------------|-------
D|---4---2---0---|-------------------2---4---|-----------------0---|-------
A|---------------|---3---2---3---5-----------|----------0----------|-------
E|---------------|---------------------------|---0-----------------|---0---


E|-----------------|---3---1---0----------|---1-----------------|---3---1---
B|-----------------|------------------3---|---------------------|-----------
G|-----------------|----------------------|---------------------|-----------
D|-------------0---|------------------0---|-----------------0---|-----------
A|------0----------|-----------0----------|----------0----------|-----------
E|-----------------|---0------------------|---0-----------------|---0-------


E|---0---1-------|---5-----------------|---3---1---0---1---3---0---|-------
B|-----------3---|---------------------|---------------------------|---6---
G|---------------|---------------------|---------------------------|-------
D|-----------0---|-----------------0---|-------------------0-------|-------
A|---0-----------|----------0----------|-----------0---------------|-------
E|---------------|---0-----------------|---0-----------------------|---0---


E|---3---5-------3---5---|---3-----------------------|---------------------
B|-----------6-----------|-------6---5---3---5---6---|---3-----------------
G|-----------------------|---------------------------|---------------------
D|---------------0-------|-------------------0-------|-----------------0---
A|-------0---------------|-----------0---------------|----------0----------
E|-----------------------|---0-----------------------|---0-----------------


                          (5th Fret)            (7th Fret)

E---|---------------------|---------------------|---------------------|---
B---|---------------------|---------------------|---------------------|---
G---|---------------------|---------------------|---------------------|---
D---|-----------------0---|---<0>---------------|---<0>---------------|---
A---|----------0----------|---<0>---------------|---<0>---------------|---
E---|---0-----------------|---<0>---------------|---<0>---------------|---


 (12th Fret

E|---------
B|---------
G|---------
D|---<0>---
A|---<0>---
E|---<0>---
Suggest correction
Give kudos to tab author, rate the tab!
1 2 3 4 5
comments
print report bad tab
guest
You may want to rate the tab now too:
select rating
Wanna post a correction for this tab? Suggest correction