Oops, an error
Loading. Please wait.

Schubert - Ave María Chords

875 views 6 this week
no commentswrite comment
1 2 3 4 5
3 more votes to show rating
add to favorites
launch autoscroll
font size
0
reset
transpose
0
reset
simplify chords
display chords
guitar tuner
×
Best way to learn
"Schubert - Ave María"
Autoscroll
slow
fast
+/-
esc
set tempo
stop
1e.-|-----------------------------------0-----------3-6-3---|-
2b.-|-------1-------------1-----------1---1-------5-------5-|-
3g.-|-----0---0---------0---0-------0-------0---------------|-
4d.-|---2-------2-----2-------2-----------------------------|-
5a.-|-3-------------3-------------3-------------3-----------|-
6E.-|-------------------------------------------------------|-

1e.-|-------1-------------4-------------0-------------------|-
2b.-|-----1---1---------6---6---------1---1-----------1-----|-
3g.-|---2-------2-----4-------4-----0-------0-------0---0---|-
4d.-|---------------------------------------------2-------2-|-
5a.-|-3-------------3-------------3-------------3-----------|-
6E.-|-------------------------------------------------------|-

C  C 
Am        G    Am
A-ve   Ma-ri.-.-.-a
D        G         C 
e-res la ma-dre de a-mor

     E7
Por ti?
         Am           B7
Hoy se e-le-va mi ple-ga-r-i-a
     E7
Por ti?
                        Am
Mi can-to es u-na o-ra-cion

          G 
E-res la luz?
      A                   G 
Que brilla en la os-cu-ri-dad
      D                   G 
Y en tus o-jos en-cuentro paz

     G7
Sin ti?
                    C 
Soy un ni-ño in-de-fe- n-s-o
    G7                  Am
En me-dio de la te-m-pes-tad
   G     E7             Dm
Y hoy? a-qui, - ma-dre del al-ma
    Dm7       F#ø              G 
Ro-ga-mos por to-da la hu-ma-ni-dad

C  C 
Am        G    Am
A-ve   Ma-ri.-.-.-a

Intro...

C  C 
Am        G    Am
A-ve   Ma-ri.-.-.-a
D        G         C 
e-res la ma-dre de a-mor

     E7
Por ti?
          Am          B7
Hoy se e-le-va mi ple-ga-r-i-a
     E7
Por ti?
                         Am
Mi can-to es u-na o-ra-cion

          G 
E-res la luz?
      A                   G 
Que brilla en la os-cu-ri-dad
      D                   G 
Y en tus o-jos en-cuentro paz

     G7
Sin ti?
                    C 
Soy un ni-ño in-de-fe- n-s-o
    G7                  Am
En me-dio de la te-m-pes-tad
   G     E7             Dm
Y hoy? a-qui, - ma-dre del al-ma
    Dm7       F#ø              G 
Ro-ga-mos por to-da la hu-ma-ni-dad

C  C 
Am        G    Am
A-ve   Ma-ri.-.-.-a

C  C 
Am        G    Am
A-ve   Ma-ri.-.-.-a
Suggest correction
Give kudos to tab author, rate the tab!
1 2 3 4 5
comments
print report bad tab
guest
You may want to rate the tab now too:
select rating
Wanna post a correction for this tab? Suggest correction