Oops, an error
Loading. Please wait.

Schubert - Ave María Tab

version 2
version 2

Whole song

715 views 1 this week
no commentswrite comment
1 2 3 4 5
3 more votes to show rating
add to favorites
launch autoscroll
font size
0
reset
how to read this tab
guitar tuner
Autoscroll
slow
fast
+/-
esc
set tempo
stop
Help us to improve Ultimate-Guitar.com Take our survey!
×
Introduccion


 e|--------------------------------3-----------1----------------|
 B|--------1-----------1---------5---5-------1---1--------------|
 G|------0---0-------0---0-----3-------3---2-------2------------|
 D|----2-------2---2-------2------------------------------------|
 A|--3-----------3-----------3-----------3----------------------|
 E|-------------------------------------------------------------|


 e|--------1-----------0----------------------------------------|
 B|------1---1-------1---1---------1----------------------------|
 G|----1-------1---0-------0-----0---0--------------------------|
 D|----------------------------2-------2------------------------|
 A|--3-----------3-----------3----------------------------------|
 E|-------------------------------------------------------------|


1ª parte


 e|--------------------------0------0---------------------------|
 B|--1-----1---------1-0---1----------1----------3--------------|
 G|------0---0-----------2--------0-----0------4---4------------|
 D|----2-------2---4------------2------------3-------3----------|
 A|--3-----------0----------------------------------------------|
 E|--------------------------3-------------3--------------------|


 e|----------------------------------0--------------------------|
 B|--1-----1-----------1-----------3---3--1----0-----0----------|
 G|------2---2-------2---2-------2--------0------2--------------|
 D|----2-------2---2-------2---3----------0--0-----0------------|
 A|--0-----------0----------------------------------------------|
 E|--------------------------1------------3---------------------|


 e|---------------------0------0------0-------------0--2--------|
 B|--1-----1-------------------0--------3--1--0-----------------|
 G|------0---0-------0------0--1----1-------------2-------------|
 D|----2-------2---2------2-------2-------------2---------------|
 A|--3-----------3-------------3--------------3-----------------|
 E|-------------------------------------------------------------|


 e|----------------------------------------------0--1-----------|
 B|--5-----5------4------4---0--3-----3---1----3-------3--0-----|
 G|------2-----2-------2------------4--------4------------------|
 D|----4-----4-------4-----4------3-----3----3------------------|
 A|--2------------2---------------------------------------------|
 E|-----------------------------4------------4------------------|


 e|--------------------0----------------------0--3--0------------|
 B|--1-----1-----------------3-----3---0----2----------2---------|
 G|------2---2-------2-----2-----0--------2----------------------|
 D|----2-------2---2-----2-----0-----0---------------------------|
 A|--0-----------0-----------2-----------------------------------|
 E|---------------------------------------0----------------------|


 e|-------------------------------------------------------------|
 B|--3-----3-----------0--1h3p1p0-----------0-----------0-------|
 G|------4---4-------2-------------2--0---0---0-------0---0-----|
 D|----5-------5--0---------------------0-------0---0-------0---|
 A|--5----------------------------------------------------------|
 E|-----------------------------------3-----------3-------------|


2ª parte


 e|-------------------------0-----0-----------------------------|
 B|--3-----3---3--3-----3-----3-----1-----------1---------------|
 G|------4---4--------6---4-----------0-------0---0-------------|
 D|----3------------3-----------2-------2---2-------2-----------|
 A|-------------------------------------------------------------|
 E|--3------------3-----------3-----------3---------------------|


 e|-------------------------------------------------------------|
 B|--3-----3---3--3---3--6/5--3/-1-----1-----------1------------|
 G|------4---4------6----------------2---2-------2---2----------|
 D|----3---------------------------2-------2---2-------2--------|
 A|------------------------------0-----------0------------------|
 E|--3------------3---------------------------------------------|


 e|---------------0----0--0h1p0---0--3------1-------------------|
 B|--3-----3---3--0-------------3----3--3-----3-------3---------|
 G|------0--------1--1---------------2----2-----2---2---2--2----|
 D|----0-----0-----------------------0------------0-------------|
 A|-------------------------------------------------------------|
 E|--3------------0---------------------------------------------|


 e|--0----------------------------------------------------------|
 B|--------3---1--1-0-1-4-3-1--3-----3-----------3--------------|
 G|------2--------2----------------0---0-------0---0------------|
 D|----3-----3----4--------------0-------0---0-------0----------|
 A|---------------0---------------------------------------------|
 E|-1-------------------------3-----------3---------------------|


 e|--------------------------0------0---------------------------|
 B|--1-----1---------1-0---1----------1----------3-------1------|
 G|------0---0-----------2--------0-----0------4---4------------|
 D|----2-------2---4------------2------------3-------3----------|
 A|--3-----------0---------------------------------------3------|
 E|--------------------------3-------------3--------------------|


final


 e|--------------------------------0-----------3-----------1----|
 B|--1-----1-----------1---------1---1-------5---5-------1---1--|
 G|------0---0-------0---0-----0-------0---3-------3---2-------2|
 D|----2-------2---2-------2------------------------------------|
 A|--3-----------3-----------3-----------3-----------3----------|
 E|-------------------------------------------------------------|


 e|--------1-----------0----------------------------------------|
 B|------1---1-------1---1---------1----------------------------|
 G|----1-------1---0-------0-----0---0--------------------------|
 D|----------------------------2-------2------------------------|
 A|--3-----------3-----------3----------------------------------|
 E|-------------------------------------------------------------|


 e|--------------------------0------0---------------------------|
 B|--1-----1---------1-0---1----------1----------3-------1------|
 G|------0---0-----------2--------0-----0------4---4-----0------|
 D|----2-------2---4------------2------------3-------3---2------|
 A|--3-----------0---------------------------------------3------|
 E|--------------------------3-------------3--------------------|
Suggest correction
Give kudos to tab author, rate the tab!
1 2 3 4 5
comments
print report bad tab
guest
You may want to rate the tab now too:
select rating
Wanna post a correction for this tab? Suggest correction