Oops, an error
Loading. Please wait.

Schubert - Serenade tab

2,010 views 36 this week
1 commentread comment
1 2 3 4 5
x 4
add to favorites
×
Save as Personal and add changes to this tab that will be seen only by you. Learn more ›
×
You can save this tab as Personal to edit and correct it or add notes. All changes will be seen only by you. Learn more »
launch autoscroll
font size
0
reset
how to read this tab
guitar tuner
edit
Autoscroll
slow
fast
+/-
esc
set tempo
stop
Primera parte

e -----------------------------------------------------0-1-0-5-----0--
B -----1---1--------1---1--------0---0--------0---0------------0-1-2--
G ---2---2---2----2---2---2----2---2---2----1---1---1-----------------
D ---------------------------0------------2---------------------------
A -0---------------------------------------------------0--------------
E --------------1-----------------------------------------------------


e ---0---5--------0----------------------------12---4-10-10-8-7--8---5---5----
B -3---3-----3--------0-3--3-1-0--1---------------0----0-------------5---5----
G -----------2------1-----------------2---2------------------------5---5---5--
D -0-------3---3--2-----------------2---2---2---------------------------------
A --------------------------------0------------------------------0------------
E -------------------------0--------------------0---------0-------------------


e -0-1-0-8------0----0---7----1-5--3-----1--1-0----0----------3-----1--1-0----
B ------------1----3---3----3---3--0---0----0---3------1---1------0----0---3--
G ----------2---2------------------0---0----0----------0---0----0------0------
D -----------------0-----------------0---0-----------2---2--------------------
A -0-----------------------------------------------3--------------------------
E ---------------------------------3--------3-----------------3--------3------


e -0-------------0---4-8-----7--5---0----------1-3-1-0-1-5------1--
B ------0---0-------------------------1-------------------------1--
G ------0---0--------------1-7--5-----------2-----------------2----
D ----2---2---2----2---6------------------2-----------------3------
A -3---------------------2------0-----0-3--------------------------
E ---------------0----------------0--------------------------------


e -----------------0-------1----------------------0----4-8-----7--5---0----------
B -1----1---1----3---3-2-3-------3--1--------------------------7--------1--------
G ------0---0--------0---------0-4-------0---0---------------1----6-----------2--
D ----2---2---2------------------------2---2---2-----2---6-2----------------2----
A -3-------------------------2------3-----------------------------0-----0-4------
E ------------------------------------------------0-----------------0------------


e -2-4-2-1-2-5------2--0-------------7-6-7-10------4--5----0---0----||
B ------------------3-------2---2----------------0-5-----0-2---2----||
G ----------------2---------2---2--------------1-------------2---2--||
D -----0--------4---------2---2---2---------------------------------||
A ---------------------0------------------------------0-------------||
E -----------------------------------0------------------------------||


Segunda parte


e -------------5--1--0--------0--0--0--1--------0--0--0--0-----------0-----
B -------3-----6--3--2--------2--2--2--3--------3--3--3--2-----------2-----
G ----2-----2--------------2-----2-----------1-----1-----------2-----2-----
D ----------------------2-----2-----2-----2-----2-----2-----2-----2-----2--
A -0-----------------0-----------------------------------0-----------------
E -------------------------------------0-----------------------------------


e -2-----------5--2--0--------0--0--0--0---------0--0--0--0------------------
B -3-----------7--3--2--------2--2--2--3---------3--3--3--2------------------
G -------2-----------------2-----2------------1-----1------------2-----2-----
D ----4-----4-----------2-----2-----2------2-----2-----2------2-----2-----2--
A -0-----------------0------------------------------------0------------------
E -------------------------------------0-------------------------------------


e -0--1--0--5--------0-----0-----5-----------0---------------------------------------
B ----------------1-----3-----3--------3-----------0--3--3--1--0--1------------------
G -------------2-----1-----------------2--------1------------------------2-----2-----
D ----------------------0-----------3-----3--2------------------------2-----2-----2--
A -0--------------------------------------------------------------0------------------
E -------------------------------------------------------0---------------------------


e -12-----4--10--10--8--7--8-----5-----5-----0--1--0--5--------0-----0-----7-----1--5--
B ---- 0------0------------------5-----5--------------------1-----3-----3-----3-----5--
G ----------------------------5-----5-----5--------------2-----2-----------------------
D ----------------------------------------------------------------0--------------------
A -------------------------0-----------------0-----------------------------------------
E --0-------------0--------------------------------------------------------------------


e -1--------1--1--0-----0-------------5--3--------1--1--0----------------------
B -0-----0-----0-----3--------1----1-----------0-----0-----3--1----1-----1-----
G -0-----0-----0--------------0----0--------0--------0-------------0-----0-----
D ----0-----0--------------2-----2-------------------------------2----2-----2--
A ----------------------3-------------------------------------3----------------
E -3-----------3-------------------------3-----------3-------------------------


e -0-----4--8--------7--5-----0--------------1--3--1--0--1--5--------5--0-----------------
B -------------------------------1--------------------------------------------1-----1-----
G -------------------7--5-----------------3-----------------------2--5--------0-----0-----
D ----2-----6-----6--------------------2-----------------------3-----------2-----2-----2--
A -------------5--------0--------0--3-----------------------------------3-----------------
E -0-----------------------0--------------------------------------------------------------


e ----0-----------1-----------------------------0-----4--8--------7--5-----0--------------||
B -3-----3--2--3-----------2--1-----------------------------------------------1-----------||
G -------0--------------0--4--------0-----0--------------------1--7--6-----------------2--||
D -------------------------------2-----2-----2-----2-----6--2-----------------------2-----||
A -------------------2--------3--------------------------------------0--------0--4--------||
E ----------------------------------------------0-----------------------0-----------------||


Final

e -----------------------------------------------------0-1-0-5-----0--
B -----1---1--------1---1--------0---0--------0---0------------0-1-2--
G ---2---2---2----2---2---2----2---2---2----1---1---1-----------------
D ---------------------------0------------2---------------------------
A -0---------------------------------------------------0--------------
E --------------1-----------------------------------------------------


e ---0---5--------0----------------------------12---4-10-10-8-7--8---5---5----
B -3---3-----3--------0-3--3-1-0--1---------------0----0-------------5---5----
G -----------2------1-----------------2---2------------------------5---5---5--
D -0-------3---3--2-----------------2---2---2---------------------------------
A --------------------------------0------------------------------0------------
E -------------------------0--------------------0---------0-------------------


e -0-1-0-8------0----0---7----1-5--3-----1--1-0----0----------3-----1--1-0----
B ------------1----3---3----3---3--0---0----0---3------1---1------0----0---3--
G ----------2---2------------------0---0----0----------0---0----0------0------
D -----------------0-----------------0---0-----------2---2--------------------
A -0-----------------------------------------------3--------------------------
E ---------------------------------3--------3-----------------3--------3------


e -0-------------0---4-8-----7--5---0----------1-3-1-0-1-5------1--
B ------0---0-------------------------1-------------------------1--
G ------0---0--------------1-7--5-----------2-----------------2----
D ----2---2---2----2---6------------------2-----------------3------
A -3---------------------2------0-----0-3--------------------------
E ---------------0----------------0--------------------------------


e -----------------0-------1----------------------0----4-8-----7--5---0----------
B -1----1---1----3---3-2-3-------3--1--------------------------7--------1--------
G ------0---0--------0---------0-4-------0---0---------------1----6-----------2--
D ----2---2---2------------------------2---2---2-----2---6-2----------------2----
A -3-------------------------2------3-----------------------------0-----0-4------
E ------------------------------------------------0-----------------0------------


e -2-4-2-1-2-5------2--0-------------7-6-7-10------4--5----0---0----||
B ------------------3-------2---2----------------0-5-----0-2---2----||
G ----------------2---------2---2--------------1-------------2---2--||
D -----0--------4---------2---2---2---------------------------------||
A ---------------------0------------------------------0-------------||
E -----------------------------------0------------------------------||

            
            
Suggest correction
Creating personal tab
Creating personal tab
You can edit any tab online and save it as your Personal.

You can edit, replace or remove any tab part or add personal notes – all changes will be seen only by you.

Personal tabs can be accessed anytime from any device, even offline.
Learn more »
comments
print report bad tab
1 comment total.
0 reply
phamkhoiedison 359 Apr 21, 2015 03:47 AM

Very nice tab but need some change too

guest
Wanna post a correction for this tab? Suggest correction