Oops, an error
Loading. Please wait.

Segovia - Estudio Sin Luz Tab

466 views 3 this week
no commentswrite comment
1 2 3 4 5
3 more votes to show rating
add to favorites
launch autoscroll
font size
0
reset
how to read this tab
guitar tuner
Autoscroll
slow
fast
+/-
esc
set tempo
stop
Help us to improve Ultimate-Guitar.com Take our survey!
×
 |   |   |    |   |   |    |   |   |    |   |   |
E ------------|------------|0-----------|------------|
B 0---2---3---|2-------3---|----3---2---|3-----2-0---|
G ------------|--0---0---0-|--0-------3-|--4---------|
D --4---4---4-|------------|----0-2-4---|----4-2-0---|
A 2-------2---|2-------2---|4-----------|2-----------|
E ------------|------------|------------|------------|


  |   |   |    |   |   |    |   |   |    |   |   |
E ------------|------------|0-----------|------------|
B 0---2---3---|2-----3-2---|----3---2---|0-----------|
G ------------|----4-----4-|--0---4---3-|--------0---|
D --4---4---4-|--3-----3---|----4---2---|--0-2-4---2-|
A 0-------0---|------------|------------|2-------2---|
E ------------|3-------3---|2-------2---|------------|


  |   |   |    |   |   |    |   |   |    |   |   |
E ------------|2---2-------|0-----------|2-----------|
B 0-------3-5-|--3---3-5--3|0---0---3-5-|--3-5-7-5-3-|
G ------------|2---2---3---|--0---0-----|2-------3---|
D 4-----------|0-------0---|0-----------|0-------0---|
A 2-----------|------------|------------|------------|
E ------------|------------|------------|------------|


  |   |   |    |   |   |    |   |   |    |   |   |
E 0-----------|------------|------------|------------|
B 0---0---3-2-|0---0---2---|------------|------------|
G --0---0-----|------------|2-------0---|2-----------|
D 0-----------|--0---0-----|----2-------|----2---2---|
A ------------|------------|--4---4-----|--4---4---4-|
E ------------|3---3---3---|3-------0---|3-----------|


  |   |   |    |   |   |    |   |   |    |   |   |
E ------------|------------|------------|0-----------|
B ------------|0---2---3---|2-------3---|----3---2---|
G 3-----------|------------|--0---0---0-|--0-------3-|
D ----2---2---|--4---4---4-|------------|----0-2-4---|
A --4---4---4-|2-------2---|2-------2---|4-----------|
E 2-----------|------------|------------|------------|


  |   |   |    |   |   |    |   |   |    |   |   |
E ------------|------------|------------|0-----------|
B 3-----2-0---|0---2---3---|2-----3-2---|----3---2---|
G --4---------|------------|----4-----4-|--0---4---3-|
D ----4-2-0---|--4---4---4-|--3-----3---|----4---2---|
A 2-----------|0-------0---|------------|------------|
E ------------|------------|3-------3---|2-------2---|

               Fine
  |   |   |    |   |   |    |   |   |    |   |   |
E ------------|------------|2-----------|2-4-2-0-----|
B 2-----------|0-----------|0-----------|--------4-2-|
G 3-----------|0-----------|------------|4-----------|
D 2-5-4-2-0---|------------|------------|------------|
A 2---------4-|2-----------|------------|------------|
E ------------|------------|------------|------------|


  |   |   |        |   |   |    |   |   |    |   |   |
E --0-2-4-5-4-|2-4-2-----------|2-------0---|------------|
B 4-----------|----0-----------|4-------2---|4-------2---|
G 4-----------|----------------|------------|4-------2---|
D ------------|----------------|------------|------------|
A ------------|----------------|------------|------------|
E ------------|----------------|4---4---4---|4---4---4---|


  |   |   |    |   |   |    |   |   |    |   |   |
E 2-----------|------------|------------|------0-----|
B --------4--4|2-------0---|------0-2---|4-------2---|
G 3-----------|0-------1---|3-----------|0-----------|
D ------------|------------|2-----------|------------|
A ------------|------------|------------|------------|
E 4---4---4---|4---4---4---|4---4---4---|4---4---4---|


  |   |   |    |   |   |    |   |   |    |   |   |
E ------------|------------|------------|2-------0---|
B ------3-0---|------------|------------|4---/---2---|
G 3-----------|3-----------|3-----------|------------|
D 0-----------|1-----2-1---|------0-----|------------|
A ------------|------------|4-------4---|2---2---2---|
E 4---4---4---|3---3---3---|2---2---2---|------------|

                                         *-----------
  |   |   |    |   |   |    |   |   |    |   |   |
E ------------|0-----------|------------|7-------6---|
B 4---/---2---|--------4--4|2-------0---|6-------7---|
G 4---/---2---|1-----------|3-------4---|------------|
D ------------|------------|------------|6-----------|
A 2---2---2---|2---2---2---|2---2---2---|5---5---6---|
E ------------|------------|------------|------------|

  --------------------------------------|
  |   |   |    |   |   |    |   |   |    |     |     |
E --------2---|------------|------------|-----------------|
B 9-------4---|6-----7-----|--0---0-----|----------6-7-6--|
G 7-------3---|4-------8---|7-----------|--------8-------8|
D 9-------4---|6---6---7---|----7---8---|------8----------|
A 8---8-------|------------|------------|6-8-10-----------|
E ------------|------------|6-----------|-----------------|


  |   |      |  |     |     |     |   |     |     |   |     |
E -------------|-----------------|----9-7-6-7-6-4|6-----------|
B 6---11-9-8-9-|--7-6-----------7|6--------------|----9-7-6-7-|
G 8------------|------8-6-----8--|7--------------|6-----------|
D 9------------|----------9-8----|6--------------|4---------0-|
A 6------------|6----------------|6--------------|------------|
E -------------|-----------------|---------------|------------|


  |     |     |     |   |   |    |   |     |   |     |   |
E --------0-----7--|------------|-------------|------------|
B ----------0-4---9|6-----------|0------------|------------|
G ------7----------|7-------8---|-------------|------------|
D -----------------|8-------7---|----8-6------|------------|
A 6-8-9-11---------|------------|--------9-8-6|------------|
E -----------------|------------|-------------|9-7-6-5---6-|


  |   |   |    |   |   |    |   |   |    |   |   |
E 6-------4---|------------|4-----------|------------|
B 8-------6---|8-------6---|--------4---|8-----------|
G ------------|8-------6---|5-------4---|------------|
D ------------|------------|------------|8-----------|
A 6---6---6---|6---6---6---|6---6---6---|6---6-------|
E ------------|------------|------------|--------9---|


  |     |     |     |   |     |    |     |     |     |   |     |
E -----------------|--------------|-----------------|----5-3-2-3-2-0|
B ----------------0|2---7-5-4-5---|--3-2-----------3|2--------------|
G ------------8-6--|4-------------|------4-2-----4--|3--------------|
D --------8-9------|5-------------|----------5-4----|2--------------|
A ----6-9----------|2-------------|2----------------|2--------------|
E 7-9--------------|--------------|-----------------|---------------|


  |   |     |    |    |     |     |   |   |    |     |   |
E 2------------|--------------3-0|------------|------------|
B 2---5-3-2-3--|----------0-3----|2-----------|0-----------|
G 2------------|--------0--------|2-------4---|0-----------|
D 0------------|------2----------|4-------5---|4-2-0-------|
A ----------1--|2-4-5------------|------------|------4---2-|
E -------------|-----------------|------------|------------|


  |     |   |  |   |   |    |   |   |    |   |   |
E ------------|2-------0---|------------|0-----------|
B ------------|4-----------|4-------2---|--------0---|
G ------------|------------|0-----------|1-------0---|
D ------------|4-----------|------------|------------|
A ------------|2---2---2---|2---2---2---|2---2---2---|
E 5-3-2-1---2-|------------|------------|------------|


  |   |   |    |   |   |    |   |   |    |   |   |
E ------------|------------|------------|------------|
B 4-----------|3-------1---|0-----------|3--------2--|
G ------------|4-------2---|0-----------|4--------2--|
D 4-----------|------------|------------|------------|
A 2---2---0---|------------|------------|------------|
E ------------|3---3---3---|3---3---2---|1---1----1--|


  |   |   |    |   |   |    |   |   |    |   |     |
E ------------|------------|--------10--|7-5------------|
B 0-----------|----0---3-2-|6/7-8-7----9|----8-7-575-3--|
G 0-----------|--0---3-----|------------|---------------|
D ------------|3-----------|------------|---------------|
A ------------|4-----------|------------|---------------|
E 1---1---1---|2-----------|------------|---------------|


    D.S. al Fine
  |   |   |
E ------------|
B 2-------4---|
G 4-----------|
D 5-----------|
A ------------|
E 0-----------|
Suggest correction
Give kudos to tab author, rate the tab!
1 2 3 4 5
comments
print report bad tab
guest
You may want to rate the tab now too:
select rating
Wanna post a correction for this tab? Suggest correction