Oops, an error
Loading. Please wait.

Silvia Tab

26 views 1 this week
no commentswrite comment
1 2 3 4 5
3 more votes to show rating
add to favorites
launch autoscroll
font size
0
reset
how to read this tab
guitar tuner
×
Best way to learn
"Silvia"
Autoscroll
slow
fast
+/-
esc
set tempo
stop
Silvia
Leo Delibes
Transcripcion: Sergio Lopez

  |           |           |           |           |           |
|-1-----------------------8-----------------------2----------------------
|-1-----------------------------------------------2----------------------
|-2-----------------------------------------------3----------------------
|-3-----------------------------------------------2----------------------
|------------------------------------------------------------------------
|------------------------------------------------------------------------

  |           |           |           |           |           |
 -9-----------------------3-----------------------15---------------------
 -------------------------0----------------------------------------------
 -------------------------0----------------------------------------------
 -------------------------0----------------------------------------------
 ------------------------------------------------------------------------
 ------------------------------------------------------------------------

  |           |           |           |           |           |
 -------------------------------------------------------1-----3----------
 ----------------------------------------------1--0-----3-----3----------
 -------0-----------0-----0--------------0--2-----------0-----0--------2-
 ----------------------2-----0--3-----2----------------------------------
 -3--------------------------------3-------------------------------------
 -------------3----------------------------------------------------------

  |           |           |           |           |           |
 ----------------------1--0-----------3----------------------------------
 -1-----0--------0--3-----------------5--------------------------------1-
 ----0--------2-----------------5-----5-----------0--------------0--2----
 ----------3--------------------5-----5--------2-----0--3-----2----------
 ----------------------------------------------------------3-------------
 ------------------------------------------------------------------------

  |           |           |           |           |           |
 -------1-----3-----------0----------------------------------------------
 -0-----3-----6--------0--------0--1--0----------------------------------
 -------4-----4--------------0-----------------0-----0-----0-----0-------
 ----------------------------------------2--4-----2-----4-----2-----3--2-
 ------------------------------------------------------------------------
 ------------------------------------------------------------------------

  |           |           |           |           |           |
 -------------------------------1-----3--------------------------------1-
 ----------------------1--0-----3-----3-----------1-----0--------0--3----
 -0--------------0--2-----------0-----0--------2-----0--------2----------
 ----0--3-----2--------------------------------------------3-------------
 ----------3-------------------------------------------------------------
 ------------------------------------------------------------------------

  |           |           |           |           |           |
 -0-----3-----8-----------------------------------0-----------------0--1-
 -------------8-----------1-----------3-----1--0-----0--3--0--1--3-------
 -------5--------------0-----0--3--2-----2-------------------------------
 -------5-----10---------------------------------------------------------
 ------------------------------------------------------------------------
 ------------------------------------------------------------------------

  |           |           |           |           |           |
 -3--0--1--2--3--4--5--7--8-----3-----8----------------------------------
 -------------------------------3-----8--------1--0-----------0----------
 -------------------------5-----4-----9-----------------0--2--------0--2-
 -------------------------------5--------------------4-----------4-------
 ------------------------------------------------------------------------
 -------------------------------------8----------------------------------

  |           |           |           |           |           |
 -------3-----7--------0-----------------------------0--1----------------
 -0-----5-----5-----------3-----0--1--3-----0--1--3-----------1--3--1----
 -------4-----4--------------2-----------2-----------------2-----------0-
 ------------------------------------------------------------------------
 ------------------------------------------------------------------------
 ------------------------------------------------------------------------

  |           |           |           |           |           |
 -------------------------------------------------------1-----3----------
 -0--1--0--------0-----------------------------1--0-----3-----3----------
 -------------2-----2-----0--------------0--2-----------0-----0--------2-
 ----------3-----------2-----0--3-----2----------------------------------
 ----------------------------------3-------------------------------------
 ------------------------------------------------------------------------

  |           |           |           |           |           |
 ----------------------1--0-----3-----8----------------------------------
 -1-----0--------0--3-----------------8-----------1-----------3-----1--0-
 ----0--------2-----------------5--------------0-----0--3--2-----2-------
 ----------3--------------------5-----10---------------------------------
 ------------------------------------------------------------------------
 ------------------------------------------------------------------------

  |           |           |           |           |           |
 -0-----------------0--1--3--0--1--2--3--4--5--7--8-----3-----8----------
 ----0--3--0--1--3--------------------------------------3-----8----------
 -------------------------------------------------5-----4-----9----------
 -------------------------------------------------------5----------------
 ------------------------------------------------------------------------
 -------------------------------------------------------------8----------

  |           |           |           |           |           |
 -------------8-----------------------8----------------------------------
 -------------------------------------------------------------5----------
 -------5-----5-----------------5-----5-----------------7--5-----7--5----
 -7--------------8--------7--------------8--------7--8-----------------7-
 -------------------5--7--------------------5--7-------------------------
 ------------------------------------------------------------------------

  |           |           |           |           |           |
 -------------------------------------8-----------------------8----------
 ------------------------------------------------------------------------
 --------------------------------5----5-----------------5-----5----------
 -7--8-----7--5-----------7--------------8--------7--------------8-------
 -------5-----------------------------------5--7--------------------5--7-
 -------------------8----------------------------------------------------

  |           |           |           |           |           |
 -------------------------------------------------8--------------6-------
 -------------6--------------------------------------------------------5-
 -------7--5-----5--------------------------5-----------------5-----7----
 -7--8--------------7--8--5-----5--7-------------------------------------
 -------------------------------------8----------------------------------
 -------------------------------------------------------8----------------

  |           |           |           |           |           |
 -8--------------6-----------6--10-8--12-10-8--5--5--6-----5-------------
 ----------------------5--10----------------------------------8----------
 -------------5-----7-----------------------------------7-----------5----
 ------------------------------------------------------------------------
 ------------------------------------------------------------------------
 -------8----------------------------------------------------------------

  |           |           |           |           |           |
 -8--------------6--------8--------------6-----------6--10-8--13-8-------
 ----------------------5-----------------------5--10----------------10-11
 -------------5-----7-----------------5-----7----------------------------
 ------------------------------------------------------------------------
 ------------------------------------------------------------------------
 -------8-----------------------8----------------------------------------

  |           |           |           |           |           |
 -------------------------------------------------------1-----3----------
 -8-----8--10-6--------------------------------1--0-----3-----3----------
 -------------------------0--------------0--2-----------0-----0--------2-
 ----------------------2-----0--3-----2----------------------------------
 ----------------------------------3-------------------------------------
 ------------------------------------------------------------------------

  |           |           |           |           |           |
 ----------------------1--0-----------3----------------------------------
 -1-----0--------0--3-----------------5--------------------------------1-
 ----0--------2-----------------5-----5-----------0--------------0--2----
 ----------3--------------------5-----5--------2-----0--3-----2----------
 ----------------------------------------------------------3-------------
 ------------------------------------------------------------------------

  |           |           |           |           |           |
 -------1-----3-----------0----------------------------------------------
 -0-----3-----6--------0--------0--1--0----------------------------------
 -------4-----4--------------0-----------------0-----0-----0-----0-------
 ----------------------------------------2--4-----2-----4-----2-----3--2-
 ------------------------------------------------------------------------
 ------------------------------------------------------------------------

  |           |           |           |           |           |
 -------------------------------1-----3--------------------------------1-
 ----------------------1--0-----3-----3-----------1-----0--------0--3----
 -0--------------0--2-----------0-----0--------2-----0--------2----------
 ----0--3-----2--------------------------------------------3-------------
 ----------3-------------------------------------------------------------
 ------------------------------------------------------------------------

  |           |           |           |           |           |
 -0-----3-----8-----------------------------------0-----------------0--1-
 -------------8-----------1-----------3-----1--0-----0--3--0--1--3-------
 -------5--------------0-----0--3--2-----2-------------------------------
 -------5-----10---------------------------------------------------------
 ------------------------------------------------------------------------
 ------------------------------------------------------------------------

  |           |           |           |           |           |
 -3--0--1--2--3--4--5--7--8-----3-----8----------------------------------|
 -------------------------------3-----8----------------------------------|
 -------------------------5-----4-----9----------------------------------|
 -------------------------------5-----10---------------------------------|
 -------------------------------------10---------------------------------|
 -------------------------------------8----------------------------------|

Ahi esta acabada Cualquer duda o sugerencia ahi esta mi mail

Chao!!!!
Suggest correction
Give kudos to tab author, rate the tab!
1 2 3 4 5
comments
print report bad tab
guest
You may want to rate the tab now too:
select rating
Wanna post a correction for this tab? Suggest correction