Oops, an error
Loading. Please wait.

Sinisterra - Juliana Por Sol Mayor Tab

16 views 1 this week
no commentswrite comment
1 2 3 4 5
3 more votes to show rating
add to favorites
launch autoscroll
font size
0
reset
how to read this tab
guitar tuner
Autoscroll
slow
fast
+/-
esc
set tempo
stop
-------3-3-----3-3-----3---0-------|-------3-3-----3-3-----3---0-------|
-----3-------3-------3-----------3-|-----3-------3-------3-----------3-|
---0-------0-------0-----------0---|---0-------0-------0-----------0---|
-------------------------0---2-----|-------------------------0---2-----|
---------2-------3-----------------|---------2-------3-----------------|
-3---------------------------------|-3---------------------------------|

-------0-0-----0-0-----0---0-------|-------3-3-----3-3-----3---0-------|
-----1-------1-------1-----------1-|-----3-------3-------3-----------3-|
---2-------2-------2-----------2---|---0-------0-------0-----------0---|
-------------------------0---2-----|-------------------------0---2-----|
-0-------2-------3-----------------|---------2-------3-----------------|
-----------------------------------|-3---------------------------------|

-------0-0-----0-0-----0-----------|-------3-3-----3-3-----3---0-------|
-----1-------1-------1-----1-----1-|-----3-------3-------3-----------3-|
---0-------0-------0-----------0---|---0-------0-------0-----------0---|
-----------------------------------|-------------------------0---2-----|
-3-------2-------0-----------------|---------2-------3-----------------|
-------------------------3---1-----|-3---------------------------------|

-------3-3-----3-5-----5-3-----3-|-5-----5-5-----5-------5---------|
-----3-------3-------3-------3---|-----5-------5-------5-----------|
---4-------4-------4-------4-----|---5-------5-------5-------5---5-|
---------5-------4-------3-------|-7-------6-------5---------------|
-5-------------------------------|-------------------------7---5---|
---------------------------------|---------------------------------|

------7-7-----7-7-----7-2-----2-2-----2-3-----3-0-----0-0-----0-0-----0-|
----8-------8-------8-------0-------0-------0-------0-------0-------0---|
--9-------9-------9-------2-------2-------2-------0-------0-------0-----|
--------9-----------------------1-------1-------------------------------|
7-----------------------2-----------------------------------------------|
----------------7-------------------------------0-------0-------0-------|

-3-----3-2-----2-0-----0-2---3---|-7-----7-5-----5-3-----3-2---0---|
-----0-------0-------0-----------|-----5-------0-------0-----------|
---0-------0-------0-------0---0-|---0-------0-------0-------0---0-|
---------------------------------|---------------------------------|
---------------------------------|---------------------------------|
-0-------0-------0-------0---0---|-0-------0-------0-------0---0---|

---------5-5-----5-------5-5---5-|-5-----5-5-----5-5-----5-------5-|
-------5-------5-------5---------|-----7-------7-------5-------5---|
-----5-------5-------5-------5---|---7-------7-------6-------6-----|
---7-------6-------5-------6---7-|-0-------0---------------7-------|
---------------------------------|-----------------7---------------|
---------------------------------|---------------------------------|

-5-----5-5-----5-0-----0-0---0---|-5-----5-5---5---|5|-------------|
-----7-------7-------5-----------|-----5-----------|5|-------------|
---7-------7-------7-------7---7-|---6-------6---6-|6|-------------|
-0-------0---------------6---6---|-7---------------|7|-------------|
-----------------7-----7---------|---------7-------|7|-------------|
---------------------------------|-------------8---|5|-------------|

-5-----5--5-----5-----5--5-----|-3-----3--3-----2-----2--2-----|
-----7------7-------6------6---|-----5------5-------3------3---|
---7----------7---7----------7-|---4----------4---2----------2-|
-0--------------7--------------|-5--------------0--------------|
-------------------------------|-------------------------------|
-------------------------------|-------------------------------|

-------0-0-----2-----0---3---3-----3-3---3---3-|
-----1-----1-----1-----1---1-----3-------------|
---2---------2-----2-----------0-------0---0---|
-------2-------0-------------------------0-----|
-0-----------------------------------2---------|
-----------------------------3---------------3-|

---3-0-0-----0-0---0---0-----0-0---0---2-----0-2---3---
-----------0---------------1---------------3-----------
-0-------0-------0---0---0-------0---0---2-------2---2-
---------------2---0-----------0---2---0-------0---0---
-------2---------------3-------------------------------
-------------------------------------------------------

-3-----3-0-----0-3-----3-0---0-----------3-0-----0-3-----3-0---0-----|
-----3-------3-------3-----------2-----3-------3-------3-----------2-|
---0-------0-------0-------0---0-----0-------0-------0-------0---0---|
-------------------------0---2-----------------------------0---2-----|
---------2-------3-------------------------2-------3-----------------|
-3---------------------------------3---------------------------------|

-------------|x|---3--3--3--3|3|--------|
---3--3--3--3|x|--3--3--3--3-|3|--------|
--0--0--0--0-|x|----------0--|0|--------|
----------0--|0|----0--2-----|0|--------|
----2--3-----|2|-3-----------|x|--------|
-3-----------|3|-------------|x|--------|

------------0--3--3-----------------0--0--0-----------------|
---2--2--2-2--3--3---3--3-----3--3-1--1--1---1--1--1--1--1--|
--3--3--3-----------0--0---0-0--0-----------0--0--0--0--0---|
----------0--3--0---------0---------------------------------|
-0--2--3-----------3--2-----0--2--3--2--0-----------------2-|
-------------------------3-----------------3--1--0--1--3--3-|

------------------3|3|--------|
---------3--3--3-3-|3|--------|
---0--0-0--0--0-0--|0|--------|
--0--0----0--3-----|0|--------|
----2--3-----------|2|--------|
-3-----------------|3|--------|

---0--0--0---------------------------------------------------2--2------|0|
--1--1--1---1--1--1--1--1---0--0--0--0--0--0--0--0--0--0--0-0--0---0--0|0|
----2--0---0--0--0--0--0---0--0--0--0--0--0--0--2--2--2--2-2--2---2--2-|0|
-2--------3--2-----0--2------2-0---------------------1-----------1-----|2|
----------------3---------2--------3--2-----0--2--2-----2-----------2--|2|
-----------------------------------------3-----------------------------|0|
Suggest correction
Give kudos to tab author, rate the tab!
1 2 3 4 5
comments
print report bad tab
guest
Wanna post a correction for this tab? Suggest correction