Oops, an error
Loading. Please wait.

Sonata Tab

91 views 1 this week
no commentswrite comment
1 2 3 4 5
3 more votes to show rating
add to favorites
launch autoscroll
font size
0
reset
how to read this tab
guitar tuner
Autoscroll
slow
fast
+/-
esc
set tempo
stop
Help us to improve Ultimate-Guitar.com Take our survey!
×
                                 SONATA
                                Longo 352
                                                      Domenico Scarlatti


                                                                        
E-------||-------------------0--------2--|------------------------------
B-------||---0--4h5p4--2--4--0-----------|------------------------------
G---4:--||*--0--2------------0--2--0-----|------------------------------
D---4:--||*--2--4---------------4--2--1--|------------------------------
A-------||-------------------------------|------------------------------
E-------||-------------------------------|------------------------------
             2    4 3  1  3                                             

                CII-              CII-                                  
E---3--5--7--0--------------|-----------------------2--|----------------
B---0-----------4--2--0-----|--------------------------|----------------
G---------------4--------2--|--0--2--4-----------------|----------------
D---2--4--5--7--------4-----|--2--------2--1--------1--|----------------
A---------------2--4-----2--|-----------0--2--4--2-----|----------------
E---------------------------|--0--2--3-----------------|----------------
                                                                        

                CII-                                                    
E---3--5--7--0--------------|--7-----5-----3--------2--------2--|-------
B---0-----------4--2--0--7--|--8-----7-----5--4--2--4--0--4-----|-------
G---------------4--------7--|-----0-----0-----------------------|-------
D---2--4--5--7--------------|-----------------------------------|-------
A---------------2-----------|-----------------------------------|-------
E---------------------------|-----------------------------------|-------
                                                                        

                                                                        
E---7-----5-----3--------2--------2--|----------------------------------
B---8-----7-----5--4--2--4--0--4-----|----------------------------------
G------0-----0-----------------------|----------------------------------
D------------------------------------|----------------------------------
A------------------------------------|----------------------------------
E------------------------------------|----------------------------------
                                                                        

                                                                        
E---8------7----------------------------|-------------------------------
B---10-----8-----10--------8------------|-------------------------------
G-------0-----0--11--9--8--9--8--9--11--|-------------------------------
D---------------------------------------|-------------------------------
A---------------------------------------|-------------------------------
E---------------------------------------|-------------------------------
                                                                        

                                                                        
E---8------7----------------------------|-------------------------------
B---10-----8-----10--------8------------|-------------------------------
G-------0-----0--11--9--8--9--8--9--11--|-------------------------------
D---------------------------------------|-------------------------------
A---------------------------------------|-------------------------------
E---------------------------------------|-------------------------------
                                                                        

                                                                        
E---12------10-----9-----7-----6-----4-----2-----0-----|----------------
B------------------------------------------------------|----------------
G---12--11--9---7--9--7--6--4--6--4--3--1--3-----1--3--|----------------
D---------------------------------------------4--------|----------------
A------------------------------------------------------|----------------
E------------------------------------------------------|----------------
                                                                        

                                                                        
E---------------2--0----------------------------|-----------------------
B---3--------3--------3h5p3--2--0--2h3p2--------|-----------------------
G---4-----4--------0----------------------4--3--|-----------------------
D------4--------------4------------2------------|-----------------------
A-----------------------------------------------|-----------------------
E-----------------------------------------------|-----------------------
                                                                        

                                                                        
E---------------2--0----------------------------|-----------------------
B---0--------3--------3h5p3--2--0--2h3p2--------|-----------------------
G---------4--------0----------------------4--3--|-----------------------
D---0--4--------------4------------2------------|-----------------------
A-----------------------------------------------|-----------------------
E-----------------------------------------------|-----------------------
                                                                        

                      CII- - -  -  -  - - -  -                          
E---2--------2--7--0----------------------------|-----------------------
B---------3--------2--3h5p3--2-----2h3p2--------|-----------------------
G------4-----------0------------4---------4--3--|-----------------------
D---0-----------------4------------2------------|-----------------------
A-----------------------------------------------|-----------------------
E------------------0--2------------2------------|-----------------------
                                                                        

                                                                        
E------7--5------------------------------------------|------------------
B---0--------8--7--5--------0------------------------|------------------
G---------------------8--6---------------------------|------------------
D------------------------------9--7------------------|------------------
A------------------------------------10--9--7--6--4--|------------------
E---7------------------------------------------------|------------------
    3  4  1  4  3  1  4  2     3  1  4   3  1  3  1                     

                                                                        
E---------------------------7---||--------------------------------------
B---------------------------7---||--------------------------------------
G---------------------------8--*||--------------------------------------
D------4--6--8--9-----------9--*||--------------------------------------
A------------------6--7--9--9---||--------------------------------------
E---7-----------------------7---||--------------------------------------
    4  1  1  3  4  1  1  3                                              

            CIV-  -  -  -  -                                            
E---||------------------------------------|-----------------------------
B---||---4--5--7--5--4--5--7--7--------8--|-----------------------------
G---||*-----------------------------0--9--|-----------------------------
D---||*-----------------------------------|-----------------------------
A---||---2--4-----------------6-----7-----|-----------------------------
E---||---------------------------7--------|-----------------------------
                                                                        

                                                                        
E-------------------------------------|---------------------------------
B---10--8-----7--8h10p8--7--8------0--|---------------------------------
G---11--9-----8--9-------------10-----|---------------------------------
D-------------------------------------|---------------------------------
A---0---------------------------------|---------------------------------
E----------7-----0--------------------|---------------------------------
                                                                        

                                                                        
E----------------2-----0--------|--2-----3--2--0--7--------7--|---------
B---10-----8-----2--------------|--------------------------0--|---------
G----------9--0-----------------|-----------------8-----------|---------
D---10--7-----------4--5--4--2--|--1-----1-----------9--9-----|---------
A-------------------------------|-----2-----------------------|---------
E-------------------------------|-----------------7-----------|---------
                                                                        

                                                                        
E---5--3--2--3--2--0--2--0-----0--2--3--|-------------------------------
B---4--------5--------1-----3--0--------|-------------------------------
G---5--------4--------2--------0--------|-------------------------------
D---------------------------------------|-------------------------------
A---------------------------------------|-------------------------------
E---------------------------------------|-------------------------------
                                                                        

                            tr                                          
E---2--3--5--3--5--3--2--3--2-----3--|----------------------------------
B---0-----------------------0--------|----------------------------------
G------------4-----------------------|----------------------------------
D---1--------2-----------------------|----------------------------------
A------------------------------------|----------------------------------
E------------------------------------|----------------------------------
                                                                        

                                                                        
E---8------7-----5--------------------|---------------------------------
B---10-----8-----7--------8--------8--|---------------------------------
G-------0-----0-----9--8--9-----9-----|---------------------------------
D----------------------------9--------|---------------------------------
A-------------------------------------|---------------------------------
E-------------------------------------|---------------------------------
                                                                        

                                                                        
E---8------7-----5---------------------|--------------------------------
B---10-----8-----7--------8------------|--------------------------------
G-------0-----0-----9--8--9--7---------|--------------------------------
D-------------------------------10--9--|--------------------------------
A--------------------------------------|--------------------------------
E--------------------------------------|--------------------------------
                                                                        

                                                                        
E----------------------------------------------------|------------------
B---10-----8-----7-----5-----4-----2-----0-----------|------------------
G----------------------------------------------2-----|------------------
D---10--9--7--5--7--5--4--2--4--2--1-----1-----------|------------------
A-------------------------------------4-----2--4--2--|------------------
E----------------------------------------------------|------------------
                                                                        

                                                                        
E-----------------------------------------------|-----------------------
B---------------0-------------------------------|-----------------------
G---0--------0-----2--0h2p0--------0h2p0--2--1--|-----------------------
D---2-----2------------------4--2---------------|-----------------------
A------2-----------3--2------------0------------|-----------------------
E-----------------------------------------------|-----------------------
                                                                        

                                                                        
E---------0--3--7--5--3h5p3--2--0--2h3p2--------|-----------------------
B------0-----------7--4------------4------5--4--|-----------------------
G------------------5--2------------2------------|-----------------------
D---2-------------------------------------------|-----------------------
A-----------------------------------------------|-----------------------
E---3-------------------------------------------|-----------------------
                                                                        

                        CV-I  - -  -   - ---  -   -                     
E---7--------7--12-----------------------------------|------------------
B---------8---------10--8h10p8--7------7h8p7---------|------------------
G---0--9------------11--9----------10---------10--9--|------------------
D-------------------10-----------------7-------------|------------------
A-------------------0--------------------------------|------------------
E-----------------------7--------------7-------------|------------------
                                                                        

                                                                        
E---0--12--10--------------------0------------------------|-------------
B---0----------13--12--10--8--7---------------------------|-------------
G---0-------------------------------9--7------------0-----|-------------
D-----------------------------------------10--9--7-----4--|-------------
A---------------------------------------------------------|-------------
E---0-----------------------------------------------------|-------------
       3   1   4   3   1   2  1     3  1  4   3  1     3                

                            harm                                        
E---------------------------12---||-------------------------------------
B---------------------------12---||-------------------------------------
G---------------------------12--*||-------------------------------------
D---2--------1--2---------------*||-------------------------------------
A------2--4--------------2-------||-------------------------------------
E------------------3--5-----12---||-------------------------------------
    1  2  4  1  1  2  4  1
Suggest correction
Give kudos to tab author, rate the tab!
1 2 3 4 5
comments
print report bad tab
guest
You may want to rate the tab now too:
select rating
Wanna post a correction for this tab? Suggest correction