Oops, an error
Loading. Please wait.

Sor - Studio # 5 En B Menor Tab

43 views 1 this week
no commentswrite comment
1 2 3 4 5
3 more votes to show rating
add to favorites
launch autoscroll
font size
0
reset
how to read this tab
guitar tuner
×
Best way to learn
"Sor - Studio # 5 En B Menor"
Autoscroll
slow
fast
+/-
esc
set tempo
stop
Fernando Sor

E----------------|--2-------2---|--0-------0----|---------------|
B---3--------3---|----3---3---3-|----2---2---2--|--3-------3----|
G------4---4---4-|--------------|---------------|----4---4---4--|
D--------4-------|------4-------|------4--------|------4--------|
A---2------------|--------------|---------------|---------------|
E----------------|--------------|---------------|---------------|

E--------------|-------------|-0-------1---|-2------------|
B--2-------2---|-3-------3---|---0---0---0-|---2---2------|
G----3---3---3-|---4---4---4-|-----0-------|-----3------3-|
D------4-------|-----4-------|-------------|---------4----|
A--------------|-------------|-------------|--------------|
E--------------|-------------|-------------|--------------|

E---------------|-2-------2---|-0-------0---|-------------|
B---3-------3---|---3---3---3-|---2---2---2-|-3-------3---|
G-----4---4---4-|-------------|-------------|---4---4---4-|
D-------4-------|-----4-------|-----4-------|-----5-------|
A---2-----------|-------------|-------------|-------------|
E---------------|-------------|-------------|-------------|

E--0-------0---|-------------|--------------|-----------||
B----2---2---2-|-3-------3---|-2-------2----|---3-------||
G------0-------|---4---4---4-|---3---3---3--|-4-----4---||
D----------2---|-----4-------|-----4--------|-----4-----||
A--------------|-------------|--------------|---------2-||
E--------------|-------------|--------------|-----------||

E----2-------2---|-0-------0---|-------------|--------------|
B-#----3---3---3-|---2---2---2-|-3-------3---|-2-------2----|
G----------------|-------------|---4---4---4-|---3---3----3-|
D-#------4-------|-----4-------|-----4-------|-----4--------|
A----------------|-------------|-------------|--------------|
E----------------|-------------|-------------|--------------|

E----------2---|-0-----------|-------------|---2----------|
B--3---------3-|---2-----2---|-3-------3---|-2-------2----|
G----4---4-----|-------3---3-|---4---4---4-|------3-------|
D------4-------|-----4-------|-----4-------|------------4-|
A--------------|-------------|-------------|--------------|
E--------------|-------------|-------------|--------------|

E--------------|-0-----------|-------------|-------------|
B--4-------4---|---------0---|-2-------2---|-3-------3---|
G----2---2---2-|---0---0---0-|---0---0---0-|-------2---2-|
D------4-------|-----2-------|-----2-------|---0-4-------|
A--2-----------|-------------|-0-----------|-------------|
E--------------|-0-----------|-------------|-------------|

E-------------|-3---0-------|-------------|-----------2-|
B-1-------1---|---------1---|-0-------0---|---------2---|
G---0---0-----|---0---0---0-|---1---1---1-|-3-----3-----|
D-----2-------|-2---2---2---|-----0-------|-----4-------|
A-------------|-------------|-------------|---4---------|
E-0-----------|-------------|-1-----------|-2-----------|

E-------------|-2-------2---|-0-------0---|-------------|-------------|
B-3-------3---|---3---3---3-|---2---2---2-|-3-------3---|-2-------2---|
G---4---4---4-|-------------|-------------|---4---4---4-|---3---3---3-|
D-----4-------|-----4-------|-----4-------|-----4-------|-----4-------|
A-2-----------|-------------|-------------|-------------|-------------|
E-------------|-------------|-------------|-------------|-------------|

E-------------|-0-------1---|-2-------------|-2-------2---|-4-------4---|
B-3-------3---|---0---0---0-|-------2-----2-|---3---3---3-|---6---6---6-|
G---4---4---4-|-----0-------|-----3---------|-----4-------|-----4-------|
D-----4-------|-------------|---4------2----|-0-----------|-------------|
A-------------|-------------|---------------|-------------|-4-----------|
E-------------|-------------|---------------|-------------|-------------|

E-6-------6---|-7-------7---|-3-------3---|-2-------2---|-2------------|
B---5---5---5-|---0---0---0-|---2---2---2-|---3---3---3-|---2---2----2-|
G-----6-------|-----7-------|-----4-------|-----4-------|-----3--------|
D-4-----------|-5-----------|-2-----------|-4-----------|---------2----|
A-------------|-------------|-------------|-------------|--------------|
E-------------|-------------|-------------|-------------|-2------------|

E---------------||
B----0--------#-||
G---------------||
D----0--------#-||
A----2----------||
E---------------||
Suggest correction
Give kudos to tab author, rate the tab!
1 2 3 4 5
comments
print report bad tab
guest
You may want to rate the tab now too:
select rating
Wanna post a correction for this tab? Suggest correction