Oops, an error
Loading. Please wait.

Suite Venezolana No.3 Registro (Preludio) Tab

47 views 1 this week
no commentswrite comment
1 2 3 4 5
3 more votes to show rating
add to favorites
launch autoscroll
font size
0
reset
how to read this tab
guitar tuner
×
Best way to learn
"Suite Venezolana No.3 Registro (preludio)"
Autoscroll
slow
fast
+/-
esc
set tempo
stop
                        Registro
                      Antonio Lauro


s=pull off o hammer on
sl=slide


1           s                                    sl  s       s
|----------2-0------s-------------|-----------4-7--11-9-----8-6------|
|--------------0---2-0------s-----|---------4-----------9----s--6----|
|@-------1-------1-----1---2-1----|-------4---------------9-8-6---6--|
|@-----2-----------------2-----2--|-----4-----------------------6----|
|----2---------------------------2|---6-------------0-------------8--|
|--0------------------------------|-4-----------------------6--------|

3
|----------------------------------|----------0-----------0----------|
|-----0--------0--------0-------0--|--------3-----3-----3---------3--|
|-------0--------0--------0-------0|------0-----0-----0---------0----|
|---0-------0---------0-------0----|----4-----------4---------4------|
|----------------------------------|--2---------------------2--------|
|-8-------9--------10-------7------|0--------------------------------|

5
|-----------0-----------0---------|----------0-----------0-----------|
|---------3-----3-----3---------3-|--------0-----0-----0---------0---|
|-------0-----0-----0---------0---|------2-----2-----2---------2-----|
|-----4-----------4---------4-----|----0-----------0---------0-------|
|---2---------------------2-------|--3---------------------3---------|
|-0-------------------------------|1---------------------------------|

7                      s
|---------------------2-0------s--|--s---s---------------------------|
|-------------------0---------5-3-|-3-1-0-1---0--s-------------------|
|------------s-s--0---------3-----|---------2---0-2---0--s---s-------|
|------s-s--0-1-3---------3-------|-----------------3---1-3-0-1--s---|
|--s--0-1-3-----------------------|-0---------------------------1-3--|
|-2-3-----------------------------|----------------------------------|

9                    s
|------0---7----12-10-8-------s------|------0---5---10-7-------5------|
|--0---------10---------8---10-8-----|--0---------8--------5-------5--|
|----2---7----------------9------9---|----2---5----------5---5---6---7|
|0------------------0--------------10|-0---------------0--------------|
|------------------------------------|--------------------------------|
|------------------------------------|--------------------------------|

11
|-3--------1----------------------|-------------------------0--------|
|-----1-------1-------3-------1---|-0-------0-------0-----3-------3--|
|---2---2---3---3-------5-------3-|---0---0---0---0-----0-------0----|
|-0-----------------4-------2-----|-----4-------4-----4-------4------|
|-----------------0-------0-------|---------2------------------------|
|---------------------------------|-0---------------0----------------|


13
|-------------------------0-------|-----------0---4---0--------------|
|-0-------0-------0-----3------3--|-0-------0---7---7---0------------|
|-------2-------2-----2------2----|-------1---------------1---1------|
|-----0-------0-----0------0------|-----4-------------------4-----4--|
|---3-------3---------------------|---2-------------------------2----|
|-1---------------1---------------|-0--------------------------------|

15                                           s
|-----------0---4---0-------------|---------2-0------s---------------|
|---------0---7---7---0-----------|-------------0---2-0------s-------|
|-------1---------------1---1----@|-------1-------1-----1---2-1------|
|-----4-------------------4-----4@|-----2-----------------2-----2----|
|---2-------------------------2---|---2---------------------------2--|
|-0-------------------------------|-0--------------------------------|


               sl    s       s
|----------4-7--11-11-9-----8--6----|---------------------------------|
|--------4--------------9----s---6--|-----0-------0--------0-------0--|
|------4------------------9-8--6---6|-------0-------0--------0-------0|
|----4---------------------------6--|---0-------0--------0-------0----|
|--6----------------0--------------8|---------------------------------|
|4--------------------------6-------|-8-------9-------10-------7------|

                           H. 12 H.5---
|-----------0-----------0------0---|----------------------------------|
|---------0---0-------0------0-----|-0--------------------------------|
|-------0-------0---0------0-----0-|----------------------------------|
|-----4-----------4----------------|----------------------------------|
|---2------------------------------|----------------------------------|
|-0--------------------------------|-0--------------------------------|

          "Espero les sirva"

Cualquier duda comentario queja sugerencia peticion
no duden en contactarme
Suggest correction
Give kudos to tab author, rate the tab!
1 2 3 4 5
comments
print report bad tab
guest
You may want to rate the tab now too:
select rating
Wanna post a correction for this tab? Suggest correction