Oops, an error
Loading. Please wait.

Tarrega - Endecha Tab

121 views 1 this week
no commentswrite comment
1 2 3 4 5
3 more votes to show rating
add to favorites
launch autoscroll
font size
0
reset
how to read this tab
guitar tuner
×
Best way to learn
"Tarrega - Endecha"
Autoscroll
slow
fast
+/-
esc
set tempo
stop
Afinen la sexta a D

E||-------5/-|--10-------------|-------------|
B||----------|------10--8------|-------------|
G||*---------|--------------10-|--9--7----7--|
D||*---------|-----------------|-----7-------|
A||----------|-----------------|-----8-------|
D||----------|-----------------|--0----------|

---------------|--8--6----------|
-----7--8--10--|-----5---8/-10--|
--9------------|-----7----------|
---------------|----------------|
---------------|----------------|
---------------|--5-------------|

E|---------------|-------------|
B|--8------------|-----------8-|
G|-----10--9--7--|--7-6------7-|
D|---------------|--0--------8-|
A|---------------|----7--------|
D|---------------|--8-7--------|

--0--6--5--9---|--12---10----13-|
-----5--3--10--|--10------------|
--6--------9---|--10------------|
--7--5--3------|----------------|
-----------0---|----------------|
---------------|--0-------------|


E|--12--8---10------|-----0--1-----|--------------|
B|------10--11-10---|--8--------4--|--3--------2/-|
G|------------------|-----3--2-----|-----2/-3--0--|
D|----------8-------|--------3-----|-----0--0-----|
A|------8-----------|-----3--------|-----------1--|
D-------------------------------------------------


-----3--5--6--|---------5/-|
--3--2--3--3--|--2---------|
--2--------3--|--2--------*|
--3--2--3--5--|--2--------*|
--0-----------|--0---------|

2
E|-----------|-----------||
B|--2--------|--3--------||
G|--2--------|--2--------||
D|--2--------|--3--------||
A|--0--------|-----------||
D|-----------|--0--------||


"eSpEro LeS sIrVa"


Cualquier duda comentario queja correccion peticion
amenaza, etc. no duden en contactarme
Suggest correction
Give kudos to tab author, rate the tab!
1 2 3 4 5
comments
print report bad tab
guest
You may want to rate the tab now too:
select rating
Wanna post a correction for this tab? Suggest correction