Oops, an error
Loading. Please wait.

Tarrega - Etudia W Formei Menueta Tab

62 views 3 this week
no commentswrite comment
1 2 3 4 5
3 more votes to show rating
add to favorites
launch autoscroll
font size
0
reset
how to read this tab
guitar tuner
×
Best way to learn
"Tarrega - Etudia W Formei Menueta"
Autoscroll
slow
fast
+/-
esc
set tempo
stop
PRIMERA PARTE

e -5-7-5-4-5-0-2-4-5-7-9-10-12---5-7-9-7-10-9-7-5---5---4--
B ------------------------------------------------------3--
G --------------------------------------------------7------
D ------------------------------------------------------2--
A ---------------------------------------------------------
E --------------------------------------------------0------


e -7-9-7-6-7-4-5-7-9-10-12-13-14---7-9-10-9-12-10-9-7---7---5--
B -------------------------------------------------------------
G ------------------------------------------------------7---6--
D -------------------------------------------------------------
A -------------------------------------------------------------
E ------------------------------------------------------0---5--


e -0-5-0-----0---------------------------0-1-------------0-----------------
B -------3-2---2-0---------2-s-0---0-2-3-----3-2-3-0---2---2----0---0------
G -----------------2-1-2-3-------3---------------------------2--1---1------
D -----------------------------0-------------0---------2--------0---0------
A ----------------------------------------------------------------------4--
E -----------------------------------------------------0--------0---0---5--


e -5-7-5-4-5-0-2-4-5-7-9-10-12---5-7-9-7-10-9-7-5---5---4--
B ------------------------------------------------------3--
G --------------------------------------------------7------
D ------------------------------------------------------2--
A ---------------------------------------------------------
E --------------------------------------------------0------


e -7-9-7-6-7-4-5-7-9-10-12-13-14---7-9-10-9-12-10-9-7---7---5--
B -------------------------------------------------------------
G ------------------------------------------------------7---6--
D -------------------------------------------------------------
A -------------------------------------------------------------
E ------------------------------------------------------0---5--


e -0-5-0-----0---------------------------0-1-------------0-----------------|
B -------3-2---2-0---------2-s-0---0-2-3-----3-2-3-0---2---2----0---0------|
G -----------------2-1-2-3-------3---------------------------2--1---1------|
D -----------------------------0-------------0---------2--------0---0------|
A ----------------------------------------------------------------------4--|
E -----------------------------------------------------0--------0---0---5--|


SEGUNDA PARTE

e -4-2-4-5-7-4-4------------0---------------------------2-5-9--
B -0-------------5-5-----5----4-4-2-4---------------0-4--------
G -------------------4-4----2---------------------2------------
D ------------------------------------------1-2-4--------------
A --------------------------0-----------2-4--------------------
E -0-----------------------------------------------------------


e -9-7-4-----------4-2-4-5-7-------4-5-7-8-9-4-5---4---------------
B -------5-0-----------------5-4-6---------------6---1-2-----------
G ---------1-------0------------------------------------2----------
D -----------------------------------------------------------------
A ---------------------------------------0----------------------0--
E -0-----------0---0----------------------------------------2-3----


e -------0-4-0------------2--2---0--
B -----0-------0----2-4-4----4---0--
G ---1-----------1--2--------2---1--
D -------------------------------2--
A -2----------------2------------2--
E ---------------------------0---0--


e -4-2-4-5-7-4-4------------0---------------------------2-5-9--
B -0-------------5-5-----5----4-4-2-4---------------0-4--------
G -------------------4-4----2---------------------2------------
D ------------------------------------------1-2-4--------------
A --------------------------0-----------2-4--------------------
E -0-----------------------------------------------------------


e -9-7-4-----------4-2-4-5-7-------4-5-7-8-9-4-5---4---------------
B -------5-0-----------------5-4-6---------------6---1-2-----------
G ---------1-------0------------------------------------2----------
D -----------------------------------------------------------------
A ---------------------------------------0----------------------0--
E -0-----------0---0----------------------------------------2-3----


e -------0-4-0------------2--2---0--|
B -----0-------0----2-4-4----4---0--|
G ---1-----------1--2--------2---1--|
D -------------------------------2--|
A -2----------------2------------2--|
E ---------------------------0---0--|


FINAL

e -5-7-5-4-5-0-2-4-5-7-9-10-12---5-7-9-7-10-9-7-5---5---4--
B ------------------------------------------------------3--
G --------------------------------------------------7------
D ------------------------------------------------------2--
A ---------------------------------------------------------
E --------------------------------------------------0------


e -7-9-7-6-7-4-5-7-9-10-12-13-14---7-9-10-9-12-10-9-7---7---5--
B -------------------------------------------------------------
G ------------------------------------------------------7---6--
D -------------------------------------------------------------
A -------------------------------------------------------------
E ------------------------------------------------------0---5--


e ---12-9-5---9-5-----5-----------------0-1-2------------0------------------||
B -5--------5-----5-----5-----0-----2-3-------3---3-0--2---2-----0---0------||
G ------------------6-----6-6---2-4-------------2-------------2--1---1------||
D ----------------------------0---------------0--------2---------0---0------||
A -------------------------------------------------------------------0---4--||
E -----------------------------------------------------0---------0-------5--||
Suggest correction
Give kudos to tab author, rate the tab!
1 2 3 4 5
comments
print report bad tab
guest
You may want to rate the tab now too:
select rating
Wanna post a correction for this tab? Suggest correction