Oops, an error
Loading. Please wait.

Tarrega - Pavana Tab

97 views 1 this week
no commentswrite comment
1 2 3 4 5
3 more votes to show rating
add to favorites
launch autoscroll
font size
0
reset
how to read this tab
guitar tuner
×
Best way to learn
"Tarrega - Pavana"
Autoscroll
slow
fast
+/-
esc
set tempo
stop
PRIMERA PARTE
	      
e --7--12--11--9---7-9-7-4----4--------2-4-2---------0--2--4--5--4--------------4-9--
B -------------------------5-----5--4------4---0-------------------------------------
G -----------------------------------------4------1--1--2--4--6--4--------1--4--4-9--
D ------------------------------------------------2--------------------2-------------
A ----------------------------------2-------------------------------2----------------
E ---------------------0-----------------------0-----------------0-------------------


e -7-9-7--4--7-12-11-9-7-9-7--4--------2-4-2--------------0--2-----0--4--5--4--2--0--
B --------2----------------------5--4------4--0-----2--4--------0--------------4--0--
G --------2--------------------------------2-----1--------------1-----4--6--4--4--1--
D -----------------------------------------------2--2--------------------------------
A ----------------------------------2---------------0-----------2--------------3-----
E -----7-------------------0------------------0-----------------------------------0--


e --7-9-7-4----4--------2-4-2---------0--2--4--5--4--------------4-9--
B ----------5-----5--4------4---0-------------------------------------
G --------------------------4------1--1--2--4--6--4--------1--4--4-9--
D ---------------------------------2--------------------2-------------
A -------------------2-------------------------------2----------------
E ------0-----------------------0-----------------0-------------------


e -7-9-7--4--7-12-11-9-7-9-7--4--------2-4-2--------------0--2-----0--4--5--4--2--0--|
B --------2----------------------5--4------4--0-----2--4--------0--------------4--0--|
G --------2--------------------------------2-----1--------------1-----4--6--4--4--1--|
D -----------------------------------------------2--2--------------------------------|
A ----------------------------------2---------------0-----------2--------------3-----|
E -----7-------------------0------------------0-----------------------------------0--|


SEGUNDA PARTE

e --0-----2-7---7-6-4-2-4-5-4---------------2-9-9-7-9-7----0-0-------------2-4-6-7--
B --0---4---4---5-----------------1--0--0-4--------------2---------0-2-4-5----------
G --1-------4---6--------------3--------------------------------3-------------------
D --------------------------------1----------------------2------2--1----------------
A -----------------------------2--2--------------------------------2----------------
E --0-----------------------2-------------------------0-----------------------------


e --7--6-6-12-11-12-14-12-6-9--7---9-7-5-4-2--------------------2--7--
B -----------------------------0--11-9-7-5-4--4----4--4--0----4----0--
G -----6--------------------------------------4----4--3------------8--
D -----7--------------------6-----------------4--3-4--2--1------------
A --4----------------------------------------------------2------------
E -----------------------------------------2----------2---------------


e --0-----2-7---7-6-4-2-4-5-4---------------2-9-9-7-9-7----0-0-------------2-4-6-7--
B --0---4---4---5-----------------1--0--0-4--------------2---------0-2-4-5----------
G --1-------4---6--------------3--------------------------------3-------------------
D --------------------------------1----------------------2------2--1----------------
A -----------------------------2--2--------------------------------2----------------
E --0-----------------------2-------------------------0-----------------------------


e --7--6-6-12-11-12-14-12-6-9--7---9-7-5-4-2--------------------2--7--|
B -----------------------------0--11-9-7-5-4--4----4--4--0----4----0--|
G -----6--------------------------------------4----4--3------------8--|
D -----7--------------------6-----------------4--3-4--2--1------------|
A --4----------------------------------------------------2------------|
E -----------------------------------------2----------2---------------|


FINAL

e -------------2-4-2-----------2-4-5-7-5-2-----2-4-5-7-9-11-9-7-5-2----------
B -0---0-2-4-5-------4-----4-5-------------4-0----------------------4--------
G ---------------------4-2--------------------------------------------4-2----
D -1----------------------------------------------------------------------4--
A -2-------------------------------------------------------------------------
E ---------------------------------------------------------------------------


e ---------7-12-11-9-7-9-7-4-----2-4-2--------0-2-4-5-4---------4-9--
B ---0-0-0-------------------5-------4--0----------------------------
G -----------------------------4-----2-----1--1-2-4-6-4-----1-4-4-9--
D -----------------------------------------2--------------2----------
A -2----------------------------------------------------2------------
E --------------------------------------0-------------0--------------


e -7-9-7--2---7-12-11-9-7-9-7---4-----2-4-2---------------2---0-4-5-4-2--0--||
B --------4-----------------------5-------4---0-----2-4-5---0---------4--0--||
G --------4-------------------------4-----2------1----------1---4-6-4-4--1--||
D -----------------------------------------------2--2-----------------------||
A ----------------------------------2---------------0-------2---------2-----||
E -----7--------------------0-----------------0--------------------------0--||
Suggest correction
Give kudos to tab author, rate the tab!
1 2 3 4 5
comments
print report bad tab
guest
You may want to rate the tab now too:
select rating
Wanna post a correction for this tab? Suggest correction