Oops, an error
Loading. Please wait.

Tarrega - Recuerdos De La Alhambra Tab

version 1
version 1

Whole song

442 views 6 this week
no commentswrite comment
1 2 3 4 5
2 more votes to show rating
add to favorites
launch autoscroll
font size
0
reset
how to read this tab
guitar tuner
×
Best way to learn
"Tarrega - Recuerdos De La Alhambra"
Autoscroll
slow
fast
+/-
esc
set tempo
stop
Dudo mucho que dominen esta cancion a la perfeccion si no es que ya son 
muy avanzados o la practican durante 1 año.. Tarrega en esta pieza quiso 
imitar el sonido de un violin con el que habia sido acompañado por un 
musico en una alhambra (teatro) de españa, es por eso que le dio ese nombre.

La t es tremolo, ya explique eso en otra cancion


     |         |         |             |         |         |      
E-|---------------------------------|---------------------------------|
B-|--t5---t5---t5---t5---t3---t3----|--t1---t1---t1---t1---t3---t3----|
G-|------------5---------4----------|------------2---------4----------|
D-|-------2---------2---------2-----|-------2---------2---------2-----|
A-|--0------------------------------|--0------------------------------|
E-|---------------------------------|---------------------------------|
 (A) t4                  t2            t1                  t2       
          1    3    1    3    1             2    3    2    3    1    
   ¨¨¨¨¨¨¨¨¨¨¨¨¨¨¨¨¨¨¨¨¨¨¨¨¨¨¨¨¨¨¨¨¨¨¨¨¨¨¨¨¨¨¨¨¨¨¨¨¨¨¨¨¨¨¨¨¨¨¨¨¨¨¨¨¨¨¨


     |         |         |             |         |         | 
E-|---------------------------------|---------------------------------|
B-|--t5---t5---t5---t5---t5---t5----|--t5---t5---t5---t5---t6---t6----|
G-|------------5---------5----------|------------5---------7----0-----|
D-|-------2---------2---------2-----|-------2---------2---------------|
A-|--0------------------------------|--0------------------------------|
E-|---------------------------------|---------------------------------|
     t4                                                    t2     
          1    3    1    3    1             1    3    1    3         
   ¨¨¨¨¨¨¨¨¨¨¨¨¨¨¨¨¨¨¨¨¨¨¨¨¨¨¨¨¨¨¨¨¨¨¨¨¨¨¨¨¨¨¨¨¨¨¨¨¨¨¨¨¨¨¨¨¨¨¨¨¨¨¨¨¨¨¨


     |         |         |             |         |         | 
E-|---------------------------------|---------------------------------|
B-|--t8---t8---t8---t8---t6---t6----|--t5---t5---t5---t5---t6---t6----|
G-|-------0----9----0----7----0-----|-------0----5----0----7----0-----|
D-|---------------------------------|---------------------------------|
A-|---------------------------------|--3------------------------------|
E-|--8------------------------------|---------------------------------|
     t2                  t2            t4                  t2         
     1         3         3             1         3         3          
   ¨¨¨¨¨¨¨¨¨¨¨¨¨¨¨¨¨¨¨¨¨¨¨¨¨¨¨¨¨¨¨¨¨¨¨¨¨¨¨¨¨¨¨¨¨¨¨¨¨¨¨¨¨¨¨¨¨¨¨¨¨¨¨¨¨¨¨


     |         |         |             |         |         | 
E-|---------------------------------|---------------------------------|
B-|--t8---t8---t8---t8---t8---t8----|--t8---t8---t8---t8---t8---t8----|
G-|-------0----9----0----9----0-----|-------0----9----0----9----0-----|
D-|---------------------------------|---------------------------------|
A-|---------------------------------|---------------------------------|
E-|--8------------------------------|--8------------------------------|
     t2                                                             
     1         3         3             1         3         3         
   ¨¨¨¨¨¨¨¨¨¨¨¨¨¨¨¨¨¨¨¨¨¨¨¨¨¨¨¨¨¨¨¨¨¨¨¨¨¨¨¨¨¨¨¨¨¨¨¨¨¨¨¨¨¨¨¨¨¨¨¨¨¨¨¨¨¨¨


     |         |         |             |         |         | 
E-|--t8---t8---t8---t8---t7---t7----|---------------------------------|
B-|------------10--------8----------|--t10--t10--t10--t10--t12--t12---|
G-|---------------------------------|------------10--------0----10----|
D-|-------10--------10--------10----|-------10--------10--------------|
A-|--8------------------------------|--8------------------------------|
E-|---------------------------------|---------------------------------|
     t2                  t1            t4                  t4       
     1    3    4    3    2    3        1    3    2    3         2    
   ¨¨¨¨¨¨¨¨¨¨¨¨¨¨¨¨¨¨¨¨¨¨¨¨¨¨¨¨¨¨¨¨¨¨¨¨¨¨¨¨¨¨¨¨¨¨¨¨¨¨¨¨¨¨¨¨¨¨¨¨¨¨¨¨¨¨¨


   CIX.......................................................................
     |       ..3:2..   |         |             |         |         | 
E-|-----------------------------------------|---------------------------------|
B-|--t10--10-10h12p10--t9---t9---t9---t9----|--t9---t9---t9---t9---t9---t9----|
G-|-------9------------9---------9----------|------------9---------9----------|
D-|-------------------------9---------9-----|-------12--------12--------12----|
A-|-----------------------------------------|---------------------------------|
E-|--0--------------------------------------|--0------------------------------|
     t2   2  2  4  2   t1                      t1                                       
          1            1    1    1    1             3    1    3    1    3               
   ¨¨¨¨¨¨¨¨¨¨¨¨¨¨¨¨¨¨¨¨¨¨¨¨¨¨¨¨¨¨¨¨¨¨¨¨¨¨¨¨¨¨¨¨¨¨¨¨¨¨¨¨¨¨¨¨¨¨¨¨¨¨¨¨¨¨¨¨¨¨¨¨¨¨¨


     |         |         |             |         |         | 
E-|---------------------------------|---------------------------------|
B-|--t11--t11--t11--t11--t10--t10---|--t8---t8---t8---t8---t10---t10--|
G-|------------9---------9----------|------------9---------10---------|
D-|-------11--------11--------11----|-------7---------7----------7----|
A-|--0------------------------------|---------------------------------|
E-|---------------------------------|--9------------------------------|
     t4                  t3            t2                  t4                 
          3    1    3    1    3        3    1    4    1    4     1                
   ¨¨¨¨¨¨¨¨¨¨¨¨¨¨¨¨¨¨¨¨¨¨¨¨¨¨¨¨¨¨¨¨¨¨¨¨¨¨¨¨¨¨¨¨¨¨¨¨¨¨¨¨¨¨¨¨¨¨¨¨¨¨¨¨¨¨¨


     |      ..3:2..  |         |             |         |         | 
E-|---------------------------------------|---------------------------------|
B-|--t8---8-8h10p8---t6---t6---t6---t6----|--t6---t6---t6---t6---t6---t6----|
G-|-------9----------7---------7----------|------------7---------7----------|
D-|--0--------------------7---------7-----|-------7---------7---------7-----|
A-|---------------------------------------|--5------------------------------|
E-|---------------------------------------|---------------------------------|
     t2   2 2 4 2    t2                                                              
          3          3    4    3     4       1    4    3    4    3     4              
   ¨¨¨¨¨¨¨¨¨¨¨¨¨¨¨¨¨¨¨¨¨¨¨¨¨¨¨¨¨¨¨¨¨¨¨¨¨¨¨¨¨¨¨¨¨¨¨¨¨¨¨¨¨¨¨¨¨¨¨¨¨¨¨¨¨¨¨¨¨¨¨¨¨


                                     CI..............................                
     |         |         |             |         |         | 
E-|--t0---t0---t0---t0--------------|---------------------------------|
B-|----------------------t3---t3----|--t1---t1---t1---t1---t3---t3----|
G-|-------2----4----2----4----2-----|------------2---------2----------|
D-|--0------------------------------|-------1---------1---------1-----|
A-|---------------------------------|---------------------------------|
E-|---------------------------------|--1------------------------------|
                         t3            t1                  t4                 
          2    4    2    4    2        1    1    2    1    2    1              
   ¨¨¨¨¨¨¨¨¨¨¨¨¨¨¨¨¨¨¨¨¨¨¨¨¨¨¨¨¨¨¨¨¨¨¨¨¨¨¨¨¨¨¨¨¨¨¨¨¨¨¨¨¨¨¨¨¨¨¨¨¨¨¨¨¨¨¨


     |     ..3:2..  |         |             |         |         | 
E-|--------------------------------------|---------------------------------||
B-|--t1---1-1h3p1---t0---t0---t0---t0----|--t0---t0---t0---t0---t0---t0----||
G-|-----------------1---------1----------|------------1---------1----------||
D-|-------2--------------2---------2-----|-------2---------2---------2-----||
A-|--------------------------------------|---------------------------------||
E-|--0-----------------------------------|--0------------------------------||
     t1   1 1 4 1                                                                  
          3         2    3    2    3             3     2    3    2    3                
   ¨¨¨¨¨¨¨¨¨¨¨¨¨¨¨¨¨¨¨¨¨¨¨¨¨¨¨¨¨¨¨¨¨¨¨¨¨¨¨¨¨¨¨¨¨¨¨¨¨¨¨¨¨¨¨¨¨¨¨¨¨¨¨¨¨¨¨¨¨¨¨¨


Repeat from the begining (A)


                                    CII..............................  
     |         |         |             |         |         | 
E-|--t0---t0---t0---t0--------------|---------------------------------|
B-|------------2---------t3---t3----|--t2---t2---t2---t2---t3---t3----|
G-|----------------------4----------|------------2---------4----------|
D-|-------2---------2---------2-----|-------2---------2---------2-----|
A-|--0------------------------------|--0------------------------------|
E-|---------------------------------|---------------------------------|
                         t2            t1                  t2              
          1    2    1    3    1             1    1    1    3    1             
   ¨¨¨¨¨¨¨¨¨¨¨¨¨¨¨¨¨¨¨¨¨¨¨¨¨¨¨¨¨¨¨¨¨¨¨¨¨¨¨¨¨¨¨¨¨¨¨¨¨¨¨¨¨¨¨¨¨¨¨¨¨¨¨¨¨¨¨


     |         |         |             |         |         | 
E-|--t0---t0---t0---t0---t0---t0----|--t0---t0---t0---t0---t0---t0----|
B-|------------2---------2----------|------------2---------2----------|
G-|---------------------------------|---------------------------------|
D-|-------2---------2---------2-----|-------2---------2---------2-----|
A-|--0------------------------------|--0------------------------------|
E-|---------------------------------|---------------------------------|
                                                                       
          1    2    1    2    1             1     2    1    2    1              
   ¨¨¨¨¨¨¨¨¨¨¨¨¨¨¨¨¨¨¨¨¨¨¨¨¨¨¨¨¨¨¨¨¨¨¨¨¨¨¨¨¨¨¨¨¨¨¨¨¨¨¨¨¨¨¨¨¨¨¨¨¨¨¨¨¨¨¨


     |         |         |             |         |         | 
E-|--t2---t2---t2---t2---t2---t2----|--t10--t10--t10--t10--t2---t2----|
B-|------------3---------3----------|------------12--------3----------|
G-|---------------------------------|---------------------------------|
D-|-------4---------4---------4-----|-------12--------12--------4-----|
A-|--0------------------------------|--0------------------------------|
E-|---------------------------------|---------------------------------|
     t1                                t1                  t1                
          3    2    3    2    3             3    4    3    2    3             
   ¨¨¨¨¨¨¨¨¨¨¨¨¨¨¨¨¨¨¨¨¨¨¨¨¨¨¨¨¨¨¨¨¨¨¨¨¨¨¨¨¨¨¨¨¨¨¨¨¨¨¨¨¨¨¨¨¨¨¨¨¨¨¨¨¨¨¨

            .3:2. 
     |              |         |             |         |         | 
E-|--t2---2-2h4p2---t0---t0---t0---t0----|--t0---t0---t0---t0---t0---t0----|
B-|-------3---------2---------2----------|------------2---------2----------|
G-|--------------------------------------|---------------------------------|
D-|----------------------2---------2-----|-------2---------2---------2-----|
A-|--0-----------------------------------|--0------------------------------|
E-|--------------------------------------|---------------------------------|
     t1   1 1 4 1                                                                 
          2         2    1    2    1             1    2    1    2    1             
   ¨¨¨¨¨¨¨¨¨¨¨¨¨¨¨¨¨¨¨¨¨¨¨¨¨¨¨¨¨¨¨¨¨¨¨¨¨¨¨¨¨¨¨¨¨¨¨¨¨¨¨¨¨¨¨¨¨¨¨¨¨¨¨¨¨¨¨¨¨¨¨¨


   CII.............................  CIV..............................
     |         |         |             |         |         | 
E-|--t5---t5---t5---t5---t5---t5----|--t4---t4---t4---t4--------------|
B-|-----------------2---------------|-----------------4----t4---t4----|
G-|------------2---------2----------|------------5---------5----------|
D-|-------4-------------------4-----|-------6-------------------6-----|
A-|---------------------------------|---------------------------------|
E-|--2------------------------------|--4------------------------------|
     t4                                t1                  t1               
     1    3    1    1    1    3        1    3    2    1    2    3                
   ¨¨¨¨¨¨¨¨¨¨¨¨¨¨¨¨¨¨¨¨¨¨¨¨¨¨¨¨¨¨¨¨¨¨¨¨¨¨¨¨¨¨¨¨¨¨¨¨¨¨¨¨¨¨¨¨¨¨¨¨¨¨¨¨¨¨


   CIV................................................................
     |         |         |             |         |         | 
E-|---------------------------------|---------------------------------|
B-|--t7---t7---t5---t5---t5---t5----|--t5---t5---t5---t5---t5---t5----|
G-|------------6---------6----------|------------6---------6----------|
D-|-------6---------6---------6-----|-------6---------6---------6-----|
A-|--4------------------------------|--4------------------------------|
E-|---------------------------------|---------------------------------|
     t4        t2                      t2                                   
     1    3    4    3    4    3        1    3    4    3    4    3                 
   ¨¨¨¨¨¨¨¨¨¨¨¨¨¨¨¨¨¨¨¨¨¨¨¨¨¨¨¨¨¨¨¨¨¨¨¨¨¨¨¨¨¨¨¨¨¨¨¨¨¨¨¨¨¨¨¨¨¨¨¨¨¨¨¨¨¨¨


     |         |         |             |         |         | 
E-|---------------------------------|---------------------------------|
B-|--t3---t3---t3---t3---t3---t3----|--t2---t2---t2---t2---t0---t0----|
G-|---------------------------------|---------------------------------|
D-|-------3----3----0----2----3-----|-------2----2----2---------0-----|
A-|--2------------------------------|---------------------------------|
E-|---------------------------------|--0-------------------0----------|
     t4                                t2                                  
     1    3    3         2    3             1    1    1                       
   ¨¨¨¨¨¨¨¨¨¨¨¨¨¨¨¨¨¨¨¨¨¨¨¨¨¨¨¨¨¨¨¨¨¨¨¨¨¨¨¨¨¨¨¨¨¨¨¨¨¨¨¨¨¨¨¨¨¨¨¨¨¨¨¨¨¨¨


                                          (1ª)______________________________  
   CII..................................                                    |
     |              |         |             |         |         | 
E-|--------------------------------------|---------------------------------||
B-|--------------------------------------|-----------------t0---t2---t3----||
G-|--t4---4-4h6p4---t2---t2---t2---t2----|--t2---t2---t2--------2----4-----||
D-|-------2---------2----2----4----6-----|-------2---------2---------------||
A-|--0-----------------------------------|--0---------4--------------------||
E-|--------------------------------------|---------------------------------||
     t2   2 2 4 2   t1                  (B) t1                  t2   t2          
          1         1    1    2    4             1    3    1    1    3               
   ¨¨¨¨¨¨¨¨¨¨¨¨¨¨¨¨¨¨¨¨¨¨¨¨¨¨¨¨¨¨¨¨¨¨¨¨¨¨¨¨¨¨¨¨¨¨¨¨¨¨¨¨¨¨¨¨¨¨¨¨¨¨¨¨¨¨¨¨¨¨¨¨


   (2ª)_____________________________
                                    |
     |         |         |             
E-|---------------------------------||
B-|-----------------t0---t1---t3----||
G-|--t2---t2---t2---2----2----4-----||
D-|-------2----2--------------------||
A-|--0------------------------------||
E-|---------------------------------||
     t2                  t1   t1             
          1    1    2    2    2           
   ¨¨¨¨¨¨¨¨¨¨¨¨¨¨¨¨¨¨¨¨¨¨¨¨¨¨¨¨¨¨¨¨


Repeat from (A) to (B) and continue.


     |         |         |             |         |         | 
E-|---------------------------------|---------------------------------|
B-|---------------------------------|---------------------------------|
G-|--t2---t2---t2---t2---t2---t2----|--t2---t2---t2---t2---t2---t2----|
D-|-------2----2----2----2----2-----|-------3----3----3----3----3-----|
A-|--0------------------------------|--0------------------------------|
E-|---------------------------------|---------------------------------|
     t2                                t2                                   
          1    1    1    1    1             3    3    3    3    3               
   ¨¨¨¨¨¨¨¨¨¨¨¨¨¨¨¨¨¨¨¨¨¨¨¨¨¨¨¨¨¨¨¨¨¨¨¨¨¨¨¨¨¨¨¨¨¨¨¨¨¨¨¨¨¨¨¨¨¨¨¨¨¨¨¨¨¨¨


     |         |         |             |         |         | 
E-|---------------------------------|--t0---t0---t0---t0---t0---t0----|
B-|--t0---t0---t1---t1---t3---t3----|------------2---------2----------|
G-|------------2---------2----------|---------------------------------|
D-|-------3---------3---------3-----|-------2---------2---------2-----|
A-|--0------------------------------|--0------------------------------|
E-|---------------------------------|---------------------------------|
               t1        t4                                                
          3    2    3    2    3             1    2    1    2    1               
   ¨¨¨¨¨¨¨¨¨¨¨¨¨¨¨¨¨¨¨¨¨¨¨¨¨¨¨¨¨¨¨¨¨¨¨¨¨¨¨¨¨¨¨¨¨¨¨¨¨¨¨¨¨¨¨¨¨¨¨¨¨¨¨¨¨¨¨


     |         |         |             |         |         | 
E-|--t0---t0---t0---t0---t0---t0----|---------------------------------|
B-|------------2---------2----------|--t5---t5---t5---t5---t5---t5----|
G-|---------------------------------|---------------------------------|
D-|-------2---------2---------2-----|-------6----6----6----6----6-----|
A-|--0------------------------------|--0------------------------------|
E-|---------------------------------|---------------------------------|
                                       t2                                
          1    2    1    2    1             3    3    3    3    3              
   ¨¨¨¨¨¨¨¨¨¨¨¨¨¨¨¨¨¨¨¨¨¨¨¨¨¨¨¨¨¨¨¨¨¨¨¨¨¨¨¨¨¨¨¨¨¨¨¨¨¨¨¨¨¨¨¨¨¨¨¨¨¨¨¨¨¨¨


     |         |         |             |         |         | 
E-|---------------------------------|---------------------------------|
B-|--t3---t3---t2---t2---t0---t0----|---------------------------------|
G-|---------------------------------|--t2---t2---t2---t2---t2---t2----|
D-|-------4----2----2---------0-----|-------2----2----3----4----3-----|
A-|---------------------------------|--0------------------------------|
E-|--0-------------------0----------|---------------------------------|
     t2        t2                      t2                                   
          3    1    1                       1    1    3    4    3             
   ¨¨¨¨¨¨¨¨¨¨¨¨¨¨¨¨¨¨¨¨¨¨¨¨¨¨¨¨¨¨¨¨¨¨¨¨¨¨¨¨¨¨¨¨¨¨¨¨¨¨¨¨¨¨¨¨¨¨¨¨¨¨¨¨¨¨


     |         |         |             |         |         | 
E-|---------------------------------|---------------------------------|
B-|---------------------------------|---------------------------------|
G-|--t2---t2---t2---t2---t2---t2----|--t2---t2---t2---t2---t2---t2----|
D-|-------2----2----2----2----2-----|-------3----3----3----3----3-----|
A-|--0------------------------------|--0------------------------------|
E-|---------------------------------|---------------------------------|
     t2                                t2                                 
          1    1    1    1    1             3    3    3    3    3                
   ¨¨¨¨¨¨¨¨¨¨¨¨¨¨¨¨¨¨¨¨¨¨¨¨¨¨¨¨¨¨¨¨¨¨¨¨¨¨¨¨¨¨¨¨¨¨¨¨¨¨¨¨¨¨¨¨¨¨¨¨¨¨¨¨¨¨


     |         |         |             |         |         | 
E-|---------------------------------|--t0---t0---t0---t0---t0---t0----|
B-|--t0---t0---t1---t1---t3---t3----|------------2---------2----------|
G-|------------2---------2----------|---------------------------------|
D-|-------3---------3---------3-----|-------2---------2---------2-----|
A-|--0------------------------------|--0------------------------------|
E-|---------------------------------|---------------------------------|
               t1        t4                                                
          3    2    3    2    3             1    2    1    2    1               
   ¨¨¨¨¨¨¨¨¨¨¨¨¨¨¨¨¨¨¨¨¨¨¨¨¨¨¨¨¨¨¨¨¨¨¨¨¨¨¨¨¨¨¨¨¨¨¨¨¨¨¨¨¨¨¨¨¨¨¨¨¨¨¨¨¨¨


     |         |         | 
E-|--t0---t0---t0---t0---t0---t0----|
B-|------------2---------2----------|
G-|---------------------------------|
D-|-------2---------2---------2-----|
A-|--0------------------------------|
E-|---------------------------------|

          1    2    1    2    1     
   ¨¨¨¨¨¨¨¨¨¨¨¨¨¨¨¨¨¨¨¨¨¨¨¨¨¨¨¨¨¨¨¨


     |         |         |             |         |         | 
E-|---------------------------------|---------------------------------|
B-|--t9---t9---t9---t9---t9---t9----|--t7---t7---t5---t5---t3---t3----|
G-|------------9---------9----------|------------6---------4----------|
D-|---------------------------------|---------------------------2-----|
A-|-------7---------7---------7-----|-------7---------7---------------|
E-|--0------------------------------|--0------------------------------|
     t4                                t2        t2        t2                      
          1    3    1    3    1             1    3    4    3    1               
   ¨¨¨¨¨¨¨¨¨¨¨¨¨¨¨¨¨¨¨¨¨¨¨¨¨¨¨¨¨¨¨¨¨¨¨¨¨¨¨¨¨¨¨¨¨¨¨¨¨¨¨¨¨¨¨¨¨¨¨¨¨¨¨¨¨¨


  CII.................................................................
     |         |         |             |         |         | 
E-|---------------------------------|---------------------------------|
B-|--t2---t2---t2---t2---t2---t2----|--t2---t2---t2---t2---t2---t2----|
G-|------------2--------------2-----|------------2--------------------|
D-|-------2---------2----4----------|-------2-------------------------|
A-|--0------------------------------|--0-------------------3----4-----|
E-|---------------------------------|-----------------0---------------|
     t1                                t1                                 
          1    1    1    3    1             1    1         2    3               
   ¨¨¨¨¨¨¨¨¨¨¨¨¨¨¨¨¨¨¨¨¨¨¨¨¨¨¨¨¨¨¨¨¨¨¨¨¨¨¨¨¨¨¨¨¨¨¨¨¨¨¨¨¨¨¨¨¨¨¨¨¨¨¨¨¨¨


   CII.............................
     |         |         |             |         |         |      
E-|---------------------------------|----------------------0----5-----|
B-|--t2---t2---t2---t2---t2----t2---|-----------------2---------------|
G-|------------2--------------------|------------2--------------------|
D-|-------2-------------------------|-------2-------------------------|
A-|--0-------------------3-----4----|--0------------------------------|
E-|-----------------0---------------|---------------------------------|
     t1                                                                 
          1    1         2     3            1    2    3         4             
   ¨¨¨¨¨¨¨¨¨¨¨¨¨¨¨¨¨¨¨¨¨¨¨¨¨¨¨¨¨¨¨¨¨¨¨¨¨¨¨¨¨¨¨¨¨¨¨¨¨¨¨¨¨¨¨¨¨¨¨¨¨¨¨¨¨¨


     |         |         |             |         |         | 
E-|-)12==---------------------------|---------------------------------||
B-|-(10==---------------------------|---------------------------------||
G-|---------------------------------|--2------------------------------||
D-|-)11==---------------------------|--2------------------------------||
A-|-(0==----------------------------|--0------------------------------||
E-|---------------------------------|---------------------------------||
     4                                 3                                
     1                                 2  
     2                                                              
   ¨¨¨¨¨¨¨¨¨¨¨¨¨¨¨¨¨¨¨¨¨¨¨¨¨¨¨¨¨¨¨¨¨¨¨¨¨¨¨¨¨¨¨¨¨¨¨¨¨¨¨¨¨¨¨¨¨¨¨¨¨¨¨¨¨¨
Suggest correction
Give kudos to tab author, rate the tab!
1 2 3 4 5
comments
print report bad tab
guest
You may want to rate the tab now too:
select rating
Wanna post a correction for this tab? Suggest correction