Oops, an error
Loading. Please wait.

Tarrega - Recuerdos De La Alhambra Tab

version 2
version 2

Whole song

146 views 1 this week
no commentswrite comment
1 2 3 4 5
3 more votes to show rating
add to favorites
launch autoscroll
font size
0
reset
how to read this tab
guitar tuner
Autoscroll
slow
fast
+/-
esc
set tempo
stop
Help us to improve Ultimate-Guitar.com Take our survey!
×
            * Una De Las Favoritas en Musica Clasica *

||--000-000-000-000---------------------------------000-000-000-000-000-000---------||
||---------1--------333-333-111-111-111-111-333-333--------1-------1----------------||
||-----------------4---------------2-------4----------------------------------------||
||-----2-------2-------2-------2-------2-------2-------2-------2-------2------------||
||-0-----------------------0-----------------------0--------------------------------||
||----------------------------------------------------------------------------------||

||--000-000-000-000-111-111-333-333-333-333-111-111-000-000-000-000-111-111---------||
||---------1-------3---------------5-------3---------------1-------3----------------||
||---------------------0-----------------------0-------0-------0-------0------------||
||-----2-------2---------------5-------5--------------------------------------------||
||-0-----------------------3-----------------------3--------------------------------||
||----------------------------------------------------------------------------------||

||--333-333-333-333-333-333-333-333-333-333-333-333-888--888--888--888-777--777-----||
||---------5-------5---------------5-------5----------------10--------8-------------||
||----------------------------------------------------------------------------------||
||-----5-------5-------5-------5-------5-------5-------10--------10-------10--------||
||-3-----------------------3-----------------------8--------------------------------||
||----------------------------------------------------------------------------------||

||--555-555-555-555-777-777-555-555-444-444-444-444-444-444-444-444-444-------------||
||---------6-----------6-----------5-------5-----------3---5---3---5---3------------||
||-----5-------5---------------4-------4-------4------------------------------------||
||-----------------0----------------------------------------------------------------||
||-8--------------------------------------------------------------------------------||
||-------------------------0-----------------------0--------------------------------||

||-666-666-666-666-555-555-333-333-333-333-555-555-333-333-111-111-111-111----------||
||--------5-------5---------------5-------6-----------6---3-------3-----------------||
||----6-------6-------6-------2-------2-----------------------2-------2-------------||
||--------------------------------------------7---0---------------------------------||
||0-----------------------0---------------------------------------------------------||
||----------------------------------------------------------------------------------||

||--111-111-111-111-111-111-000-000-000-000-----------------------------------------||
||---------3-------3---------------0--------333-333-111-111-111-111-333-333---------||
||-----2-------2-------2-------2-------2---4---2-----------2-------2----------------||
||-0-----------------------0---------------------------1-------1-------1------------||
||----------------------------------------------------------------------------------||
||-------------------------------------------------1--------------------------------||

||----------------------------------------------------------------------------------||
||--------------000-000-000-000-000-000-000-000-000---------------------------------||
||--555-555-755----1---------------1-------1----------------------------------------||
||---------6---2-------2-------2-------2-------2------------------------------------||
||-----7----------------------------------------------------------------------------||
||-0-----------------------0--------------------------------------------------------||


Repeat part 1

||--000-000-000-000---------------------------------000-000-000-000-000-000---------||
||---------2--------333-333-222-222-222-222-333-333--------2-------2----------------||
||-----------------4---------------2-------4----------------------------------------||
||-----2-------2-------2-------2-------2-------2-------2-------2-------2------------||
||-0-----------------------0-----------------------0--------------------------------||
||----------------------------------------------------------------------------------||


||--000-000-000-000-000-000-222-222-222-222-222-222-101010-101010--101010-101010----||
||---------2-------2---------------3-------3---------------------12-----------------||
||--------------------------------------------------------7--------------7----------||
||-----2-------2-------2-------4-------4-------4------------------------------------||
||-0-----------------------0-----------------------0--------------------------------||
||----------------------------------------------------------------------------------||

||--222-222-222-422-000-000-000-000-000-000-000-000-000-000-555-555-555-555-555-555-||
||-3-----------3---2-------2---------------2-------2--------------------2-----------||
||-----------------------------------------------------------------2-------2--------||
||-----4---------------2-------2-------2-------2-------2-------4---------------4----||
||---------0-----------------------0------------------------------------------------||
||---------------------------------------------------------2------------------------||

||----444-444-444-444-----------------000-000-000-000-000-000-000-000-000-000-------||
||---------------4----444-444-777-777-----------------------------------------------||
||-----------5-------5---------------6-------6---------------6-------6--------------||
||-------6---------------6-------6-------6-------6-------6-------6-------6----------||
||---------------------------4-----------------------4------------------------------||
||-4--------------------------------------------------------------------------------||

||----------------------------------------------------------------------------------||
||--333-333-333-333-333-333-222-222-222-222-000-000---------------------------------||
||--------------------------------------------------444-644-222-222-222-222-222-----||
||-----3---3---0---2---3-------2---2---2-------0-------2---2---2---4---6---7--------||
||-2-----------------------------------------------0--------------------------------||
||-------------------------0---------------0----------------------------------------||

|1|

||----------------------------------------------------------------------------------||
||-----------------222--333---------------------------------------------------------||
||--222--222--444-2----4------------------------------------------------------------||
||-2---------2----------------------------------------------------------------------||
||------4---------------------------------------------------------------------------||
||----------------------------------------------------------------------------------||

|2|
||----------------------------------------------------------------------------------||
||----------------------------------------------000-000 111-111 333-333-------------||
||--222-222-222-222-222-222-222-222-222-222-222--------2-------2--------------------||
||-2---2---2---2---2-------3---3---3---3---3-------3-------3-------3----------------||
||---------------------0-----------------------0------------------------------------||
||----------------------------------------------------------------------------------||

||--000-000-000-000-000-000-000-000-000-000-000-000-000-000-000-000-000-000---------||
||---------2-------2---------------2-------2----------------------------------------||
||-----------------------------------------------------1---1---1---1---1------------||
||-----2-------2-------2-------2-------2-------2------------------------------------||
||-0-----------------------0--------------------------------------------------------||
||-------------------------------------------------0--------------------------------||
Suggest correction
Give kudos to tab author, rate the tab!
1 2 3 4 5
comments
print report bad tab
guest
You may want to rate the tab now too:
select rating
Wanna post a correction for this tab? Suggest correction