Oops, an error
Loading. Please wait.

The Earle Of Salisbury Tab

113 views 3 this week
no commentswrite comment
1 2 3 4 5
3 more votes to show rating
add to favorites
launch autoscroll
font size
0
reset
how to read this tab
guitar tuner
Autoscroll
slow
fast
+/-
esc
set tempo
stop
The Earle of Salisbury
John Renbourn
Transcription Didier Large &  David Lefebvre
Accordage : E A D G B E       Signature Rythmique: 4/4

  h h   | q    q |   |   q e    q s q   h q    h e | q    q q q e e e    h e q e q e e e    Q e q e q   q    >1H   | q  >2H   | q    h   h h   q   
||--8-----8--|-7---------0----|-2-4-5-----4--|-5-----5--|-8-----8-7-5--|-7---------7-5-3--|-5-----------5---||-4-------||-4--------|--------------|
|*5----------|-5---------0----|-3-------3----|-2--------|---5-6--------|---6-5---5--------|---5-3---3-------||-5-----0-*|-5-----0--|-1-----3------|
||5----------|-4-----------6--|-2-------4----|---2------|--------------|-------7-4--------|-5-----5---------||-4-------||-4--------|-----2-----4--|
||7---7---7--|---6-4-6-7------|-0------------|-2---2----|-7------------|-5----------------|-3---------------||-2-------||-2-----2--|-----3-----5--|
|*7-----7----|-------7--------|-------3-2----|-0--------|--------------|------------------|-----------3-2-0-||---2---7-*|---2------|---3-----5----|
||5----------|-0--------------|--------------|----------|--------------|------------------|-----------------||-----0---||-----0----|--------------|
  h   q h q    w e e h e        h     e h      w   h      w              h                  Q         e e e    H Q q q    H Q q Q      h h   Q q   

  h e q q    e   q q   q    q | q q q    q | q e q    | e e e e e    q e q h Q E    w   
|-0--------|-8-----10-----|-12--10--12-|-----10128--|---------7-8--|-7-----0-4----|-5--|
|-1-3-1-8--|-----10----12-|-------13---|-12------10-|---109h10-----|---10100h--3h-|-2--|
|-0-----9--|-----10----12-|-12---------|------------|--------------|-------4------|-2--|
|----------|---10----12--|-10---------|------------|---------0----|---7-102------|-2--|
|-3--------|--------------|---10--12---|-12------0--|--------------|-7------------|-0--|
|----------|--------------|------------|---0--------|-0------------|--------------|----|
  h            e     q      q q   q      q h     q    H       q      h e q h        w   


Created with TablEdit 
Suggest correction
Give kudos to tab author, rate the tab!
1 2 3 4 5
comments
print report bad tab
guest
Wanna post a correction for this tab? Suggest correction