Oops, an error
Loading. Please wait.

The Orphan Tab

23 views 1 this week
no commentswrite comment
1 2 3 4 5
3 more votes to show rating
add to favorites
×
Save as Personal and add changes to this tab that will be seen only by you. Learn more ›
×
You can save this tab as Personal to edit and correct it or add notes. All changes will be seen only by you. Learn more »
save as personal
new!
launch autoscroll
font size
0
reset
how to read this tab
guitar tuner
Autoscroll
slow
fast
+/-
esc
set tempo
stop
The Orphan
John Renbourn


Accordage : D G D G Bb D       Signature Rythmique: 6/8

       e s s   e e   e    e e e e e e    e s s s e e e e    e e e Q        e s s   e e   e    e e e e e e    e s s s E e e e    e e   q     
|----||-----------------|--------------|-0h1p0---0--------|--------------|------------------|--------------|-0-1p0---0--------|-----------||
|----|*-----------------|-------2p0-2--|-------2---2h4-2--|-0---0--------|------------------|-------2p0-2--|-------2---2h4-2--|-0---------*|
|----||0h2p0---0-0---0--|-3p2h3--------|------------------|---2---0------|-5h7h5---5-0---0--|-3p2h3--------|------------------|---0---0---||
|-0--||------3-----3----|-0-----3------|-----------3------|-0-------3-0--|-------8-----3----|-0-----3------|-----------3------|-0h--3-0-0-||
|----|*0----------------|--------------|-3----------------|--------------|-0----------------|--------------|-3----------------|-------0---*|
|----||-----------------|--------------|------------------|--------------|------------------|--------------|------------------|-----------||
  e    Q     s     e      Q     Q        Q         Q        Q       e e    H     s     e      Q     Q        Q         Q        q   e Q e   

>3Q e e Q e e    e s s s e Q s s s e    e e e Q e e    e e e |            e s s   e e   e    e e e e e e    e s s s e e e e    e e   q   
||5h7-5-3h5-3--|-0h1p0---0-3h5p3p2-3--|-5p0----------|------------------|------------------|--------------|-0h1p0---0--------|---------||
|*------2------|-------2---2----------|-----0-2h4-2--|-4p0--------------|------------------|-------2p0-2--|-------2---2h4-2--|-0-------*|
||0-----2------|----------------------|-------3------|-----0------------|-0h2p0---0-0---0--|-3p2-3--------|------------------|---0---0-||
||0------------|----------------------|-------2------|-0-----3h5h3p2-3--|-------3-----3----|-0-----3------|-----------3------|-----3-0-||
|*0-----2------|-3---------2----------|-0------------|-------2----------|-0----------------|--------------|-3----------------|-0---2-0-*|
||-------------|----------------------|--------------|-------0----------|------------------|--------------|------------------|-----0---||
  Q     Q        Q         Q            Q     Q        Q     Q s s s e    H     s     e      Q     Q        Q         Q        q   e q   


Created with TablEdit 
Suggest correction
Give kudos to tab author, rate the tab!
1 2 3 4 5
comments
print report bad tab
guest
Wanna post a correction for this tab? Suggest correction