Oops, an error
Loading. Please wait.

The South Wind Tab

220 views 6 this week
no commentswrite comment
1 2 3 4 5
3 more votes to show rating
add to favorites
launch autoscroll
font size
0
reset
how to read this tab
guitar tuner
×
Best way to learn
"The South Wind"
Autoscroll
slow
fast
+/-
esc
set tempo
stop
The South Wind
arr. John Renbourn
davlefeb@
Accordage : D A D G B D       Signature Rythmique: 6/8

         |       | e      |         |            |       Q          | e e q          |       | e      |         |            |       Q         
|------|----------------|----------------------|------------------|---0------------|----------------|----------------------|------------------|
|------|-----------0----|----------------------|------------------|-----0----------|----------------|----------------------|------------------|
|------|----------------|----------------------|---------0--------|-----0-2--------|-----------0h---|----------------------|---------0--------|
|-4h5--|-4-4p2-0-----7--|-2-4p2p0-2-2---2p4p5--|-4-4p2-0-------0--|-------0---4h5--|-4-4p2-0-----7--|-2-4p2p0h2-2---2h4h5--|-4-4p2-0-------0--|
|------|-0-------9------|-0-----------0--------|---------2p0-2----|----------------|-0-------9------|-0-----------0--------|-0-------2p0-2----|
|------|-0--------------|----------------------|-0----------------|-0-------0------|-0--------------|----------------------|-0----------------|
  s s    e s s e Q   e    Q t t e e q q t t s    e s s e e e s s    Q     q q s s    Q s s e e   e    s t t e e e e t t s    Q s s e e e e s   

  | e e e   s s    E S e s Q e e    E s   e   e      |     | s e    | E e e   s s    E S s s q e e    E s   q e    |       | s       
|---0---0--------|---2------------|----------------|--------------|-------2--------|---2------------|------------|------------------|
|-----0-----0h2--|-3---2h3-3p2-0--|----------------|--------------|---2-3-2---0h2--|-3---2h3-3/2-0--|------------|-----------0------|
|-----0-2--------|-----2---0------|-2p0---2---0----|---------0h2--|---2------------|---------0------|-2p0---2-0--|-----------0------|
|-------0--------|-4-----------0--|-0---4---2------|-4-2p0-4------|-----4-5--------|-4-----------0--|-----4---2--|-4-4p2-0-2--------|
|----------------|-2-------0------|-------4---2/1--|-2-----2------|-0-------0------|-2-------0------|-------4----|-0-----------4p0--|
|-0-------0------|-------------5--|----------------|--------------|----------------|-------------5--|-0----------|------------------|
  Q     e q        Q       Q   e    q   e q e s s    Q s e Q        Q   e e e        Q       q   e    Q   e q e    Q s s e e   e e   

  |   s s   q        |       | e      |         |            |       Q          | e e q          |       | e      |         |           
|-------0---0------|----------------|----------------------|------------------|---0------------|----------------|----------------------|
|-------0----------|-----------0----|----------------------|------------------|-----0----------|----------------|----------------------|
|-----0-----2------|----------------|----------------------|---------0--------|-----0-2--------|-----------0h---|----------------------|
|---0-----0---4h5--|-4-4p2-0-----7--|-2-4p2p0-2-2---2p4p5--|-4-4p2-0-------0--|-------0---4h5--|-4-4p2-0-----7--|-2-4p2p0h2-2---2h4h5--|
|------------------|-0-------9------|-0-----------0--------|---------2p0-2----|----------------|-0-------9------|-0-----------0--------|
|-0----------------|-0--------------|----------------------|-0----------------|-0-------0------|-0--------------|----------------------|
  Q s     s   s s    e s s e Q   e    Q t t e e q q t t s    e s s e e e s s    Q     q q s s    Q s s e e   e    s t t e e e e t t s   

  |       Q          | e s s e s s    E S e s Q e e    E s   e   e      |     | s e    | E e q s s    E S s s q e e    E s   q e    |       | s       
|------------------|---------0------|---2------------|----------------|--------------|-------2------|---2------------|------------|------------------|
|------------------|---128/10100h2--|-3---2h3-2-2-0--|----------------|--------------|---2-3-2-0h2--|-3---2h3-2-2-0--|------------|-----------0------|
|---------0--------|---129/1111-----|-----2---0------|-2p0---2---0----|---------0h2--|---2----------|---------0------|-2p0---2-0--|-----------0------|
|-4-4p2-0-------0--|----------------|-4-----------0--|-0---4---2------|-4-2p0-4------|-----4-5------|-4-----------0--|-----4---2--|-4-4p2-0-2--------|
|-0-------2p0-2----|----------------|-2-------0------|-------4---2/1--|-2-----2------|-0------------|-2-------0------|-------4----|-0-----------4p0--|
|-0----------------|-0--------------|-------------5--|----------------|--------------|--------------|-------------5--|-0----------|------------------|
  Q s s e e e e s    Q                Q       Q   e    q   e q e s s    Q s e Q        Q   e q        Q       q   e    Q   e q e    Q s s e e   e e   

  |   s e s q e s s    E s e e e e    E   s s s q   s    E s e e e s s    Q       s |   s s    e s s e e e e    E   s s s q   s    E s e e e s s   
|-------0-----0------|---------0-0--|-2---------2------|-----0----------|-0------------------|-----------0-0--|-2---------2------|-----0----------|
|---------0-3---7h8--|-7-----7-8-10-|-2-----2h3-2---7--|-7-----0---0h3--|---------------7h8--|-7-7---7-7-8-10-|-2-----2h3-2---7--|-7-----0---0h3--|
|-----0-----2--------|-7-9-7-7-9-11-|-2---2------------|---9-----0------|---------0----------|-7---9---7-9-11-|-2---2------------|---9-----2------|
|---0-------0--------|-0------------|-2-----2h4-2------|-0-----0--------|-------4---4--------|-0--------------|-2-----2h4-5------|-0-----0--------|
|--------------------|-0------------|---0---------0----|----------------|-----0-------0------|----------------|---0---------0----|----------------|
|-0------------------|-0------------|------------------|-------5--------|---0----------------|-0--------------|------------------|-------5--------|
  Q s       q          H              e e   s s Q q      Q     Q            s s s   Q q        Q                e e   s s q e      Q     E         

  Q       s |   s s    Q s e q e e    e   s s s e   e      E s e e e e    E   s s s q   s s    Q s e q e e    E   s s s Q e    E s e s s   s s   
|-0-------------9h11-|-12121212119--|-7-------7----------|-----------7--|-2---------2---9h11-|-12121212119--|-7-------7---5--|-------2-5--------|
|--------------------|--------------|-7-----7---10--8----|-7-----7-8-7--|-2-----2h3-2--------|--------------|-7-----7---75--|-7-5-3-2-----2/3--|
|---------0----------|-11----0------|-7---9-----6---6----|-7-9-7-7-7-7--|-2---2--------------|-11----0------|-7---9-----7---|-------2-4---0----|
|-------4---4--------|-9---------0--|-7-7----------------|-7------------|-2-----2h4-5--------|-9---------0--|-7-7-------7---|-7-5-4-2----------|
|-----0-------0------|-------0------|-------------0------|--------------|---0---------0------|-------0------|----------------|-0---------0------|
|---0----------------|-----------5--|-----------------7--|-9------------|--------------------|-----------5--|----------------|------------------|
    s s s   e q        Q     q   e    s s         e   s    E              e e   s s e e        Q     q   e    e s       Q      Q s e e   e       

  s s s s s | s s    E s e e e e    E   s s s q   s    E s e e e s s    Q       s |          |       | e      |         |            |       Q         
|-0----------------|---------0-0--|-2---------2------|-----0----------|-0------------------|----------------|----------------------|------------------|
|-------0-----7h8--|-7-----7-8-10-|-2-----2h3-2---7--|-7-----0---0h3--|--------------------|----------------|----------------------|------------------|
|-0h2p0---2--------|-7-9-7-7-9-11-|-2---2------------|---9-----0------|---------0----------|-----------0h---|----------------------|---------0--------|
|-----------4------|-0------------|-2-----2h4-2------|-0-----0--------|-------4---4---4h5--|-4-4p2-0-----7--|-2-4p2p0h2-2---2h4h5--|-4-4p2-0-------0--|
|-----------0------|-0------------|---0---------0----|----------------|-----0-------0------|-0-------9------|-0-----------0--------|-0-------2p0-2----|
|-----------0------|-0------------|------------------|-------5--------|---0----------------|-0--------------|----------------------|-0----------------|
            Q        H              e e   s s Q q      Q     Q            s s s   q q s s    Q s s e e   e    s t t e e e e t t s    Q s s e e e e s   

  | e s s e s s    E S e s Q e e    E s   e   e      |     | s e    | E e q s s    E S s s q e e    E s   q e    |       | s        |       
|---------0------|---2------------|----------------|--------------|-------2------|---2------------|------------|------------------|--------|
|---128/10100h2--|-3---2h3-2-2-0--|----------------|--------------|---2-3-2-0h2--|-3---2h3-2-2-0--|------------|-----------0------|--------|
|---129/1111-----|-----2---0------|-2p0---2---0----|---------0h2--|---2----------|---------0------|-2p0---2-0--|-----------0------|--------|
|----------------|-4-----------0--|-0---4---2------|-4-2p0-4------|-----4-5------|-4-----------0--|-----4---2--|-4-4p2-0-2--------|--------|
|----------------|-2-------0------|-------4---2/1--|-2-----2------|-0------------|-2-------0------|-------4----|-0-----------4p0--|---7/5--|
|-0--------------|-------------5--|----------------|--------------|--------------|-------------5--|-0----------|------------------|-0------|
  Q                Q       Q   e    q   e q e s s    Q s e Q        Q   e q        Q       q   e    Q   e q e    Q s s e e   e e    Q e e   


Created with TablEdit 
Suggest correction
Give kudos to tab author, rate the tab!
1 2 3 4 5
comments
print report bad tab
guest
You may want to rate the tab now too:
select rating
Wanna post a correction for this tab? Suggest correction