Oops, an error
Loading. Please wait.

Un Dia De Noviembre Tab

115 views 1 this week
no commentswrite comment
1 2 3 4 5
3 more votes to show rating
add to favorites
launch autoscroll
font size
0
reset
how to read this tab
guitar tuner
×
Best way to learn
"Un Dia De Noviembre"
Autoscroll
slow
fast
+/-
esc
set tempo
stop
Un dia de Noviembre
Leo Brouwer
Transcripcion: Sergio Lopez

Bueno aqui mando otra de Leo Brouwer estan bien chidas y bien
locas las de este cubano es esta armonisada en Am saquenla se
las recomiendo.

E:|-----||----------0---|-------------|-------0---0-|-------------|
B:|----0||--1---1-------|-1---1-----0-|-1---1---3---|(1=======1-3-|
G:|--2--||*-----2-------|-----2---2---|-----2-------|)0-0---0-0---|
D:|-----||*---2---2---2-|---2---2-----|---0---------|(2---2---2---|
A:|-----||--0===========|-------------|-------------|)------------|
E:|-----||--------------|-3===========|-1===========|(3=======----|
E:|)0---0---3---|---------0---|-------------|--------------||
B:|(1-----------|-1---1-------|---------0---|-----------0--||
G:|)0-0---0---0-|-----2-----0-|-2---2-----0-|-2=======2---*||
D:|(------------|---2---2-----|---0---0-----|---2---2-----*||
A:|)3-------2---|-0-----------|-------------|-----0--------||
E:|-------------|---------3---|-1-------0---|--------------||
            C5             C4             C5           C4
      |   |     |   |   |     |   |   |     |   |   |     |   |   |
E:||----0-5-7-|-8---8---7h8-|-7---7---5h7-|-8---8---7h8-|-7---7---5h7-|
B:||--1-------|-------5-----|-------4-----|-------5-----|-------4-----|
G:||*---------|-----5-------|-----5-------|-----5-------|-----5-------|
D:||*---------|---5---------|---4---------|---5---------|---4---------|
A:||----------|-------------|-------------|-------------|-------------|
E:||----------|-------------|-------------|-------------|-------------|
E:|-5---5---3h5-|-0---0-------|-0---0-------|-0-----<12>-----|
B:|-------3-----|---------3h5-|---------3h5-|---0----------0-|
G:|-----4-------|-------4-----|-------2-----|-2---1------2---|
D:|---3---------|-----5-------|-------------|-3---2----------|
A:|-------------|---3---------|-----0-------|----------------|
E:|-------------|-------------|---1---------|----------------|
                        cresc                rit| dim    A tempo
                                                         mp


    |   |   |     |   |   |     |   |   |     |   |   |
E:|---------0---|-------------|-------0---0-|-------------|
B:|-1---1-------|-1---1-----0-|-1---1---3---|-1-------1-3-|
G:|-----2-------|-----2---2---|-----2-------|-0-0---0-0---|
D:|---2---2---2-|---2---2-----|---0---------|-2---2---2---|
A:|-0-----------|-------------|-------------|-------------|
E:|-------------|-3-----------|-1-----------|-3-----------|


                                             Segno
                                             1st-----------
    |   |   |     |   |   |     |   |   |     |   |   |
E:|)0---0---3---|---------0---|-------------|--------------||
B:|(1-----------|-1---1-------|---------0---|-----------0--||
G:|)0-0---0---0-|-----2-----0-|-2---2-----0-|-2-------2---*||
D:|(------------|---2---2-----|---0---0-----|---2---2-----*||
A:|)0-------2---|-0-----------|-------------|-----0--------||
E:|-------------|---------3---|-1-------0---|--------------||
                                    dim      cresc


    2nd
    |   |   |     |   |    |
E:|----<12>-<12>|<12>-<12>-<12>-|
B:|-------------|---------------|
G:|-2-----------|---------------|
D:|-2===========|---------------|
A:|-0===========|---------------|
E:|-------------|---------------|

Y despues de que toque esa parte te regresas al principio
y la tocas hasta el DO que te marque y acabas con armonico
en el 12 de la primera cuerda como te lo marco al final OK

Duda o sugerencia ahi esta mi mail.

Chao!!!!!
Suggest correction
Give kudos to tab author, rate the tab!
1 2 3 4 5
comments
print report bad tab
guest
You may want to rate the tab now too:
select rating
Wanna post a correction for this tab? Suggest correction