Oops, an error
Loading. Please wait.

Unas Notas Para Anna Tab

431 views 9 this week
no commentswrite comment
1 2 3 4 5
3 more votes to show rating
add to favorites
launch autoscroll
font size
0
reset
how to read this tab
guitar tuner
Autoscroll
slow
fast
+/-
esc
set tempo
stop
Help us to improve Ultimate-Guitar.com Take our survey!
×
UNAS NOTAS PARA ANNA O QUELQUES NOTES FOUR ANNA

El intro se los debo pero lo demás aquí esta
La pista tiene uno q otro detalle, pero suena bien

   NOTA:
 Las notas en paréntesis () son como adornos y son rapidas.
Escuchen la pista para que puedan identificar estos pequeños
 opcional si las quieren tomar en cuenta, de todas
maneras suena bien si no las toman en cuenta.

1|----------------------|---------------------
2|----------------------|---------------------
3|------------6-6-4(6)--|-----------6-6-4(6)--
4|-----6--4-6---------4-|-----4--4-6--------6-
5|-2h6------------------|-2h5-----------------
6|----------------------|---------------------


1|----------------------|----------------------
2|-------4-5-4(5)-2-----|----------------------
3|-----9------------1-4-|-----6--4-6-4(6)--4---
4|-3h7------------------|-2h5------------6---4-
5|----------------------|----------------------
6|----------------------|----------------------

*º*º*º*º*º*º*º*º*º*º*º*º*º*º*º*º*º*º*º*º*º*º*º*º*º*º*º*º*º*º*

1|------------9-9-7(9)--|------------9-9-7(9)--
2|-----9--7-9---------7-|-----7--7-9---------9-
3|-3h9------------------|-2h9------------------
4|----------------------|----------------------
5|----------------------|----------------------
6|----------------------|----------------------


1|------12--11-12-11(12)-9---7-|-----9--7-9-7(9)--7----
2|-3h10--------------------9---|-3h7------------9---7--
3|-----------------------------|-----------------------
4|-----------------------------|-----------------------
5|-----------------------------|-----------------------
6|-----------------------------|-----------------------

1|-----12-11-9-12-|-11-9-12-11-9----12-12-12-
2|-9-9------------|--------------10----------
3|----------------|--------------------------
4|----------------|--------------------------
5|----------------|--------------------------
6|----------------|--------------------------

1|-11-9-12-11-9---11-11-11--9-7-11-9-7------
2|--------------9----------------------10---
3|------------------------------------------
4|------------------------------------------
5|------------------------------------------
6|------------------------------------------


1|-5-7-9-7-5---11-11-11--5-7-9-7-5---11-11-11-|-4-5-4---------
2|-----------9---------------------9----------|-------7-4-5---
3|--------------------------------------------|-------------6-
4|--------------------------------------------|---------------
5|--------------------------------------------|---------------
6|--------------------------------------------|---------------

Hasta aquí se vuelve a repetir
*º*º*º*º*º*º*º*º*º*º*º*º*º*º*º*º*º*º*º*º*º*º*º*º*º*º*º*º*º*º*
Y este es el final

1|------------9-9-7(9)--|------------9-9-7(9)--
2|-----9--7-9---------7-|-----7--7-9---------9-
3|-3h9------------------|-2h9------------------
4|----------------------|----------------------
5|----------------------|----------------------
6|----------------------|----------------------

1|------12--11-12-11(12)-9---7-|-----9--7-9-7(9)--7---
2|-3h10--------------------9---|-3h7------------9---7-
3|-----------------------------|----------------------
4|-----------------------------|----------------------
5|-----------------------------|----------------------
6|-----------------------------|----------------------


1|------12--11-12-16-16-12-11-|-14p9------------------
2|-3h10-----------------------|-----------9-12-9------
3|----------------------------|--------11--------11-9-
4|----------------------------|-----------------------
5|----------------------------|-----------------------
6|----------------------------|-----------------------

Espero que sea de su agrado y vale la pena sacar esta rola.
Tambien la pueden tocar en forma de cumbia, se conoce como
UN POBLANO EN NUEVA YORK son las mismas notas pero mas rapida

Comentarios o dudas escribanme al mi corre rock_pat303@
Suggest correction
Give kudos to tab author, rate the tab!
1 2 3 4 5
comments
print report bad tab
guest
You may want to rate the tab now too:
select rating
Wanna post a correction for this tab? Suggest correction