Oops, an error
Loading. Please wait.

Vals En Sol Tab

82 views 9 this week
no commentswrite comment
1 2 3 4 5
3 more votes to show rating
add to favorites
launch autoscroll
font size
0
reset
how to read this tab
guitar tuner
×
Best way to learn
"Vals En Sol"
Autoscroll
slow
fast
+/-
esc
set tempo
stop
VALS EN SOL


    ^   ^   ^      ^              ^              ^              ^   ^   ^
E-------0---2--|---3----------|---5----------|---7----------|---7---8---0--|
b---3----------|-------0------|-------0------|-------0------|--------------|
g--------------|-----------0--|-----------0--|---------- 0--|--------------|
D--------------|---0----------|---0----------|---0----------|--------------|
A--------------|--------------|--------------|--------------|--------------|
E--------------|--------------|--------------|--------------|--------------|


E---2----------|---2---0---2--|---3----------||
B---1---1------|---1---1---1--|---0----------||
G---2-------2--|---2---2---2--|---0----------||
D---0----------|---0---0---0--|---0----------||
A--------------|--------------|--------------||
E--------------|--------------|--------------||


                  C 7????????????????????????????????????????????????
    ^   ^   ^                      ^   ^   ^                    ^   ^   ^
e---7---8---9--|---10---------|---10---9---8--|---7----------|--7---8---0--|
b--------------|----7---7-----|---------------|---8---8------|-------------|
g--------------|----7------7--|---------------|---7-------7--|-------------|
D--------------|--------------|---------------|--------------|-------------|
A--------------|--------------|---------------|--------------|-------------|
E--------------|--------------|---------------|--------------|-------------|


e---2----------|---2---0---2--|---3---------||
b---1---1------|---1---1---1--|---0---------||
g---2-------2--|---2---2---2--|---0---------||
D---0----------|---0---0---0--|---0---------||
A--------------|--------------|-------------||
E--------------|--------------|-------------||


    ^   ^   ^      ^              ^              ^              ^
e---4---5---6--|---7----------|---5----------|---3----------|---3---------||
b--------------|-------0------|-------0------|-------0------|-------------||
g--------------|----------0---|-----------0--|-----------0- |-------------||
D--------------|---0----------|---0----------|---0----------|---0---------||
A--------------|--------------|--------------|--------------|-------------||
E--------------|--------------|--------------|--------------|-------------||


                  C 7??????????????????????????????????????    C 5???????
    ^   ^   ^                                     ^   ^   ^
e---7---8---9--|---10----------|---7----------|---7---8---7--|--5----------|
b--------------|----7---7------|---8---8------|--------------|--5---5------|
g--------------|----7-------7--|---7-------7--|--------------|--5-------5--|
D--------------|---------------|--------------|--------------|-------------|
A--------------|---------------|--------------|--------------|-------------|
E--------------|---------------|--------------|--------------|-------------|


C  5?????????   C 3????????????????
    ^   ^   ^                     ^   ^   ^
e---5---7---5--|---3----------|---3---2---0--|---2----------|---2---0---2--|
b--------------|---3---3------|--------------|---1---1------|---1---1---1--|
g--------------|---4-------4--|--------------|---2-------2--|---2---2---2--|
D--------------|--------------|--------------|---0----------|---0---0---0--|
A--------------|--------------|--------------|--------------|--------------|
E--------------|--------------|--------------|--------------|--------------|


e----3---------||            ^  apoyar
b----0---------||
g----0---------||
D----0---------||
A--------------||
E--------------||
Suggest correction
Give kudos to tab author, rate the tab!
1 2 3 4 5
comments
print report bad tab
guest
You may want to rate the tab now too:
select rating
Wanna post a correction for this tab? Suggest correction