Oops, an error
Loading. Please wait.

Valse Tab

version 3
version 3

Whole song

26 views 1 this week
no commentswrite comment
1 2 3 4 5
3 more votes to show rating
add to favorites
×
Save as Personal and add changes to this tab that will be seen only by you. Learn more ›
×
You can save this tab as Personal to edit and correct it or add notes. All changes will be seen only by you. Learn more »
save as personal
new!
launch autoscroll
font size
0
reset
how to read this tab
guitar tuner
Autoscroll
slow
fast
+/-
esc
set tempo
stop
 ( ) - harmonics
   h - hammeron
   s - slide


VALSE

PART ONE
E||---------------0s5----|--7----------6--------|--7------------5-7-8-|-7-5-----2-------------|
B||-0----2----4----------|----0-0--------5-5----|----0-0--------------|------------1-1--------|
G||----------------------|----0-0--------5-5----|----0-0--------------|------------2-2--------|
D||----------------------|----------------------|---------------------|---------0-------------|
A||----------------------|----------------------|---------------------|-----------------------|
E||----------------------|--0----------0--------|--0------0-----------|-----------------------|

								END PART ONE	PART TWO
E|--0-------2-----------|----------------------||--7---------6---------|--7---------0-2-3-2-0-|
B|----1-1-----0-0-------|----------------------||----0-0-------5-5-----|----0-0---------------|
G|----0-0-----2-2-------|----------------------||----0-0-------5-5-----|----0-0---------------|
D|----------------------|----------------------||----------------------|----------------------|
A|--2-------2-----------|--2--3--2--0----------||----------------------|----------------------|
E|----------------------|--------------3--2--0-||--0---------0---------|--0-------0-----------|

END PART TWO
E|----5-7-8-7-5---------|(12)------0-----------|----------------------|--(12)---||
B|----------------------|--(12)------0---------|----------------------|--(12)---||
G|----------------------|----(12)------0-------|----------------------|--(12)---||
D|----------------------|----------------------|--4--1----------------|---------||
A|-0--------------------|----------------------|--------2--0----------|---------||
E|----------------------|----------------------|--------------3--2--0-|---------||

PART THREE
E||-4------5--------5-----|----------4-------7-----|--7------7-------5--|-0--2-----4----7----4|
B||---5-5----5-5h4----4-4-|----4-4-----5-5-----5-5-|----5-5----5-5---5--|-1--1-----5----5----5|
G||---4-4----4-4------5-5-|----5-5-----4-4-----4-4-|----7-7----6-6---5--|-2--2-----4----4----4|
D||-----------------------|------------------------|--------------------|---------------------|
A||-----------------------|------------------------|--0------0----------|---------------------|
E||-0------0--------0-----|--0-------0-------0-----|--------------------|---------------------|

...SLOW............./END PART THREE
E|-4------4---0-------||
B|-4---4------0-------||
G|-2----------1-------||
D|--------------------||
A|--------------------||
E|--------------------||

NOW REPEAT THE FIRST PART AND THEN PLAY THIS:

||--7---------6---------|--7---------0-2-3-2-0-|---0-5-7-8-7-5--------|(12)------0-----------|
||----0-0-------5-5-----|----0-0---------------|----------------------|--(12)------0---------|
||----0-0-------5-5-----|----0-0---------------|----------------------|----(12)------0-------|
||----------------------|----------------------|----------------------|----------------------|
||----------------------|----------------------|-0--------------------|----------------------|
||--0---------0---------|--0-------0-----------|----------------------|----------------------|

/...............................................SLOW........................................../
|------------------------|-------(12)-------|-------(12)-------|-------(12)-------|---(12)----|
|------------------------|---(12)---(12)----|---(12)---(12)----|---(12)---(12)----|---(12)----|
|------------------------|-(12)--------(12)-|-(12)--------(12)-|-(12)--------(12)-|---(12)----|
|--4--1------------------|------------------|------------------|------------------|-----------|
|--------2--0------------|------------------|------------------|------------------|-----------|
|--------------3--2--0---|------------------|------------------|------------------|-----------|


*******************************************************************************
Suggest correction
Give kudos to tab author, rate the tab!
1 2 3 4 5
comments
print report bad tab
guest
Wanna post a correction for this tab? Suggest correction