Oops, an error
Loading. Please wait.

W.a. Mozart - Allegro In G Tab

536 views 1 this week
no commentswrite comment
1 2 3 4 5
2 more votes to show rating
add to favorites
launch autoscroll
font size
0
reset
how to read this tab
guitar tuner
×
Best way to learn
"W.A. Mozart - Allegro In G"
Autoscroll
slow
fast
+/-
esc
set tempo
stop
La sexta cuerda se afina en D

Parte 1

e ---------3----7---10--7--10--7--10---3--2--0-----3--2--0-------
B -----3----------------------------------------3-----------3--3-
G ---------------------------------------------------------------
D ---------------------------------------------------------------
A -------------------------------------2--3-----2-----3-----2----
D ---------------------------------------------------------------
   


e --8---7--5-3-2-0--------3----7---10--7--10--7--10---3--2--0-----3-
B -----------------3--3--------0-------------------------------3----
G ------------------------0-----------------------------------------
D ----------------------------------0------0------0-----------------
A ----------------------------------------------------2--3-----2----
D --4---5--0--------------5----9-------9------9---------------------


   
e --2--0-----7---8----5---3--||
B ---------------10---7---0--||
G --------7------------------||
D --------------------0------||
A --3------------------------||
D --------9------10-------5--||


Parte 2
  
e --6/7--6/7--5--3--2--0-----0--2----
B ------------------------4--------4-
G ------------------2--0-------------
D ------------2-----------4----------
A ------------------------2----------
D -----------------------------------


e --0--2--3--4--4/5--4/5--3--2--0-----------0--------------------0-------
B ---------------------------------3--2--3-----2--3-----3--3--6-----6----
G --0---------------------------0--------------------2-----------------7-
D ------------------------0--------4--2-----------4----------------------
A ------------------------------------0----------------------------------
D --2---------------------------------------------0-----------6----------


e --5---0--0-----0--------5---0--0--9--10--9--10--12--------------------
B ------------6-----6-------------------------------------7--5----------
G --6------------------7--6---------0-----------------12--------7-----6-
D ---------------------------------------------0----------0-------------
A --0---------------------0-------------9--7-----------------------0----
D ------------6-----------------------------------11---------5----------

   

e -------------------------------------------------------------
B --3--------3--6-----------------------4--------------------0-
G -----------------------------------5-------------------------
D --------0--0-----6--6--6--7--6--7--------4--4--4--5--4--5----
A -----0--------8--------------------3--6--------------------2-
D --0--------------6--6--6--7--6--7--------4--4--4--5--4--5----

   

e --------------0-----------2-----------3-----------5----------
B --3--------------------------1--1--1-----0--0--0-------------
G -----------------------------------------------------5--5--5-
D -----3--3--3-----2--2--2-----0--0--0-----2--2--2-----4--4--4-
A -----2--2--2-----3--3--3-------------------------------------
D -------------------------------------------------------------

   

e --7-----------9------------10--||
B -----0--0--0-----8--8--8----7--||
G -------------------------------||  
D -----5--5--5-----7--7--7----0--|| 
A -------------------------------||
D -------------------------------||


Repetir la parte 1 y tocar después la parte 3


Parte 3     

e -----------------------------------10--8-----8-----7-----5--3-
B --------------------------------------------------------------
G ----0---0--0----0--2---2--2----2------------------------------
D --------3--3----2------5--5----4------------------------------
A --------2--2----3------4--4----5----------0-----------2--0----
D ---------------------------------------0-----4--0--5--------5-

   

e --10-------3----------------------------------10--8-----8----
B -------------------------------------------------------------
G -------7-------0---0--0----0--2---2--2----2------------------
D ---0---------------3--3----2------5--5----4------------------
A -------------------2--2----3------4--4----5----------0-------
D -------0---5--------------------------------------0-----4--0-

   

e --7-----5--3--10---------7-----7-----10--------7-----7-----10----
B ----------------------8-----8-----8------7--8-----8-----8------7-
G -------------------7---------------------------------------------
D ---------------0-------------------------------------------------
A -----2--0--------------------------------------------------------
D --5--------5-------0--5--------5------0-----5--------5------0----

   

e --3-------------------------3---3--||
B --0-------------0--3--0-----3---3--||
G ------0---0--0-----------0--4---4--||
D -------------------0--------5---5--||
A ----------------2-----2---------5--||
D --5---5---5--5-----------5------5--||
Suggest correction
Give kudos to tab author, rate the tab!
1 2 3 4 5
comments
print report bad tab
guest
You may want to rate the tab now too:
select rating
Wanna post a correction for this tab? Suggest correction