Oops, an error
Loading. Please wait.

W.a. Mozart - Marcha Turca Tab

500 views 1 this week
1 commentread comment
1 2 3 4 5
1 last vote to show rating
add to favorites
launch autoscroll
font size
0
reset
how to read this tab
guitar tuner
×
Best way to learn
"W.A. Mozart - Marcha Turca"
Autoscroll
slow
fast
+/-
esc
set tempo
stop
SECCIÓN A: X2
E|--------------------0----------7-5-4-5-7-5-4-5-8--5-8-7-5---|
B|---------1--3-1-0-1----6-5-4-5----------------------------8-|
G|-4-2-1-2----------------------------------------------------|
D|------------------------------------------------------------|
A|------------------------------------------------------------|
E|------------------------------------------------------------|

E|5-7-5---5-7-5-------|
B|------8-------8-7-5-|
G|--------------------|
D|--------------------|
A|--------------------|
E|--------------------|

SECCIÓN B: X2
E|-0-1-3-3--5-3-1-0---|------0-0--1-0--------|
B|------------------3-|--1-3----------3-1-0--|
G|--------------------|----------------------|
D|--------------------|----------------------|
A|--------------------|----------------------|
E|----------------X2--|------------------X2--|

E|--------------------0----------7-5-4-5-7-5-4-5-8--|
B|---------1--3-1-0-1----6-5-4-5--------------------|
G|-4-2-1-2------------------------------------------|   
D|--------------------------------------------------|
A|--------------------------------------------------|
E|--------------------------------------------------|

E|5-7-8-7-5---5-------------|
B|----------9---5-6-5-1-0---|
G|------------------------2-|
D|--------------------------|
A|--------------------------|
E|--------------------------|

SECCIÓN C: X2
E|-5-7-9--5-7-9-7-5-------5-7-----5-7-9--5-7-9-7-8-----7-----5---|
B|-----------------9-7-9------9--------------------9-7---9-------|
G|------------------------------9--------------------------9-----|
D|---------------------------------------------------------------|
A|---------------------------------------------------------------|
E|---------------------------------------------------------------|

E|-5-7-9--5-7-9-7-5-------5-7------5---5-7-9--5-7-9-7-5-----7-----5--|
B|------------------9-7-9-----9------9------------------9-7---9------|
G|------------------------------9-------------------------------9----|
D|-------------------------------------------------------------------|
A|-------------------------------------------------------------------|
E|-------------------------------------------------------------------|

SECCIÓN D: X2
E|-9-10-9----------------------------------------------------------|
B|--------12-10-12-9----10-9----------9--------6---7-6-7-9-10-9-12-|
G|-------------------11------11-10-11---10-6-8---6-----------------|
D|-----------------------------------------------------------------|
A|-----------------------------------------------------------------|
E|-----------------------------------------------------------------|

E|-9-8-9-8-9-10-9-7-5-7-5-4---5-4-------4-----------------------------|
B|--------------------------7-----7-5-7---5---4-5---4-5-7-4-0---4-----|
G|------------------------------------------6-----6-----------6---5-6-|
D|--------------------------------------------------------------------|
A|--------------------------------------------------------------------|
E|--------------------------------------------------------------------|

SECCIÓN E: X2
E|-----------------0-2-4-5-5-4-2-0-0---------------0-2-4-5--6--7---|
B|-5-3-2-0---0-3-2-------------------3-2-0---0-3-2-----------------|
G|---------2-------------------------------2-----------------------|
D|-----------------------------------------------------------------|
A|-----------------------------------------------------------------|
E|-----------------------------------------------------------------|

E|-----------------0-2-4-5-5-4-2-0-0----------0--------------------|
B|-5-3-2-0---0-3-2-------------------3-2-0--2-----2-0-3---0--------|
G|---------2------------------------------------2-------1---2------|
D|-----------------------------------------------------------------|
A|-------------------------------------------------------------0---|
E|-----------------------------------------------------------------|

E|-9-10-9----------------------------------------------------------|
B|--------12-10-12-9----10-9----------9--------6---7-6-7-9-10-9-12-|
G|-------------------11------11-10-11---10-6-8---6-----------------|
D|-----------------------------------------------------------------|
A|-----------------------------------------------------------------|
E|-----------------------------------------------------------------|

E|-9-8-9-8-9-10-9-7-9-10-9-10-9-10-9-10-9-10-|
B|-------------------------------------------|
G|-------------------------------------------|
D|-------------------------------------------|
A|-------------------------------------------|
E|-------------------------------------------|

E|-----------------------9----------------|
B|-12-10-9-10-12-9-10-12---10----7-9----7-|
G|----------------------------10-----10---|
D|----------------------------------------|
A|----------------------------------------|
E|----------------------------------------|

SECCIÓN C: X2

SECCIÓN A: X2

SECCIÓN B: X2

SECCIÓN F:
E|---5--7--9----5--7--9---7---5---4---2---4---5---7---4---0--|
B|----------------------------------------------0------------|
G|-2--4--6----2--4--6---4---2---1-------------------1--------|
D|----------------------------------4---6---7-----------2----|
A|-----------------------------------------------------------|
E|-----------------------------------------------------------|

E|---5--7--9----5--7--9---7---5---4---7---7---4---0--5---|
B|--------------------------------------0----------------|
G|-2--4--6----2--4--6---4---2---1-----------1------------|
D|----------------------------------4-----------2--------|
A|-------------------------------------------------------|
E|-------------------------------------------------------|

E|---5--7--9----5--7--9---7---5---4---2---4---5---7---4---0--|
B|----------------------------------------------0------------|
G|-2--4--6----2--4--6---4---2---1-------------------1--------|
D|----------------------------------4---6---7-----------2----|
A|-----------------------------------------------------------|
E|-----------------------------------------------------------|

E|---5--7--9----5--7--9---7---5---4---7---7---4---0--5--9-9-|
B|--------------------------------------0-------------------|
G|-2--4--6----2--4--6---4---2---1-----------1---------------|
D|----------------------------------4-----------2-----------|
A|----------------------------------------------------------|
E|----------------------------------------------------------|

E|-----------9-----------9--10-9-7-9-10-9-7-9--|
B|--------10----------10-----------------------|
G|------9-----------9--------------------------|
D|---11----------11----------------------------|
A|-0-----------0-------------------------------|
E|---------------------------------------------|

E|--------10--9-10-9-10-9-10-9-10-7-|
B|-----10-------------------------9-|
G|---11---------------------------9-|
D|-0--------------------------------|
A|----------------------------------|
E|----------------------------------|

E|-12----------9-----------9--10-9-7-9-10-9-7-9-|
B|----------10----------10----------------------|
G|--------9-----------9-------------------------|
D|-----11----------11---------------------------|
A|---0-----------0------------------------------|
E|----------------------------------------------|

E|--------10--10-9--5-7-5-7-5-7-5-7--|
B|------10---------------------------|
G|---11------------------------------|
D|-0---------------------------------|
A|-----------------------------------|
E|-----------------------------------|

E|-5-------4-----9-9--------------9--------------|
B|---5---5---5-------5---5--5---5---5---5--5---5-|
G|-----6-------6-------6------6-------6------6---|
D|-----------------------------------------------|
A|-----------------------------------------------|
E|-----------------------------------------------|

E|10-9-7-9-10-9-7-9-10-------------|
B|---------------------7---7-7---7-|
G|-----------------------7-----7---|
D|---------------------------------|
A|---------------------------------|
E|---------------------------------|

E|-8--9-0-9-0-9-0-7----------12-------------9-----------9--10-9-7-9-10-9-7-9--|
B|------------------9---9--9----9--------10----------10-----------------------|
G|--------------------9----------------9-----------9--------------------------|
D|----------------------------------11----------11----------------------------|
A|--------------------------------0-----------0-------------------------------|
E|----------------------------------------------------------------------------|

E|---------10---10-9---5-7-5-7-5-7-5-7-5----9--------12-------9----9----12----|
B|------10------------------------------------10--------10------10---10----10-|
G|---11-----------------------------------------------------------------------|
D|-0--------------------------------------------------------------------------|
A|----------------------------------------------------------------------------|
E|----------------------------------------------------------------------------|

E|---------5----------5-------|
B|-------5----------5---------|
G|-----6----------6-----------|
D|-5-7--------5-7---------7---|
A|------------------------7---|
E|------------------------5---|
Suggest correction
Give kudos to tab author, rate the tab!
1 2 3 4 5
comments
print report bad tab
1 comment total.
0 reply
sabooian 10 Feb 11, 2016 11:19 AM

The first line of seccion C the first string there is an 8 that should be a 5. Also, the very last line of Seccion F should have 6-7 on the D string instead of 5-7 Otherwise this is amazing!

guest
You may want to rate the tab now too:
select rating
Wanna post a correction for this tab? Suggest correction