Oops, an error
Loading. Please wait.

Waltz En D Tab

49 views 1 this week
no commentswrite comment
1 2 3 4 5
2 more votes to show rating
add to favorites
launch autoscroll
font size
0
reset
how to read this tab
guitar tuner
Autoscroll
slow
fast
+/-
esc
set tempo
stop
Help us to improve Ultimate-Guitar.com Take our survey!
×
                                                                    
E||--------|--------2---------|-----------------|--------3----0----|
B||--------|-----3-------3----|--3----2---------|-----2------------|
G||*--2----|--2---------------|------------2----|--2---------------|
D||*-------|--0---------------|-----------------|------------------|
A||--------|------------------|--0--------------|--0---------------|
E||--------|------------------|-----------------|------------------|


                                                                             
E|--0--------------|--------2---------|--------3----0----|--2--------2--0-----|
B|-------3---------|-----3-------3----|-----2------------|-----3-----------2--|
G|------------2----|--2---------------|--2---------------|--------2-----------|
D|--0--------------|--0---------------|------------------|--0-----------------|
A|-----------------|------------------|--0---------------|--------------0-----|
E|-----------------|------------------|------------------|--------------------|


                                                                
E|----------------||-------|--------0----0----|--------2----2----|
B|--3-------------||-------|-----2-------2----|-----3-------3----|
G|---------------*||--2----|--2---------------|--2---------------|
D|--0------------*||-------|------------------|------------------|
A|----------------||-------|--0----------0----|--0----------0----|
E|----------------||-------|------------------|------------------|


                                                                           
E|--------3----3----|--2----0---------|--------2----2----|--------3----3----|
B|-----2-------2----|------------3----|-----3-------3----|-----2-------2----|
G|--2---------------|-----------------|--2---------------|--2---------------|
D|------------------|--0--------------|------------------|------------------|
A|--0----------0----|-----------------|--0----------0----|--0----------0----|
E|------------------|-----------------|------------------|------------------|


                                                                                
E|--------3----2----|--0------------|-------|--------2--------|----------------|
B|-----2-------3----|--2------------|-------|-----3-------3---|--3----2--------|
G|--2---------------|---------------|--2----|--2--------------|------------2---|
D|------------------|---------------|-------|--0--------------|----------------|
A|--0----------0----|--0------------|-------|-----------------|--0-------------|
E|------------------|---------------|-------|-----------------|----------------|


                                                                           
E|--------3----0----|--0--------------|--------2---------|--------3----0----|
B|-----2------------|-------3---------|-----3-------3----|-----2------------|
G|--2---------------|------------2----|--2---------------|--2---------------|
D|------------------|--0--------------|--0---------------|------------------|
A|--0---------------|-----------------|------------------|--0---------------|
E|------------------|-----------------|------------------|------------------|


                                      
E|--2--------2--0-----|---------------||
B|-----3-----------2--|--3------------||
G|--------2-----------|---------------||
D|--0-----------------|--0------------||
A|--------------0-----|---------------||
E|--------------------|---------------||
Suggest correction
Give kudos to tab author, rate the tab!
1 2 3 4 5
comments
print report bad tab
guest
You may want to rate the tab now too:
select rating
Wanna post a correction for this tab? Suggest correction