Oops, an error
Loading. Please wait.

When The Children Cry Tab

152 views 1 this week
no commentswrite comment
1 2 3 4 5
2 more votes to show rating
add to favorites
launch autoscroll
font size
0
reset
how to read this tab
guitar tuner
×
Best way to learn
"When The Children Cry"
Autoscroll
slow
fast
+/-
esc
set tempo
stop
Legend
------

 h  = hammer-on
 p  = pull-off
 b  = bend
 r  = bend release
 /  = slide up/down
<5> = natural harmonic
[5] = artifical harmonic
 ~  = vibrato
 tr = trill

Tabbed by Greg Motlasz <rd2ruin@ Comments and corrections are welcome.

When the Children Cry- by Vito Bratta.  On White Lion's debut album.  I ixnayed the
solo.   Repeat as needed except the intro part.  The second time through, feel free
to adlib fleshing out the chords with random fingerpicking.  Works for me! 

intro

E|--12--------10--------8--------7--------|--10--------8--------7--3--2--0--
B|------0---------0--------0--------0-----|------0--------0-----------------
G|---------0---------0--------0--------0--|---------0--------0--------------
D|----------------------------------------|---------------------------------
A|----------------------------------------|---------------------------------
E|---0------------------------------------|---0--------------------3--2--0--


E|--------|--12--------10--------8--------7--------|--10--------8--------0--
B|--0-----|------0---------0--------0--------0-----|------0--------0--------
G|-----0--|---------0---------0--------0--------0--|---------0--------0-----
D|--------|----------------------------------------|------------------------
A|--------|----------------------------------------|------------------------
E|--------|---0------------------------------------|---0-----------------3--


E|--2--|--0-----------------------|--------------------------|-------------
B|-----|--------------0-----------|-----------3-----------3--|-----------1h
G|-----|--------0--------0-----0--|-----4--------4-----4-----|-----0-------
D|-----|-----------4--------4-----|--------4--------4--------|--------2----
A|-----|-----2--------------------|--2-----------------------|--3----------
E|--2--|--0-----------------------|--------------------------|-------------


E|-----0--------|--------------------------|--------------------------|-----
B|--3-----3-----|-----3--------------------|--------------0-----------|-----
G|-----------0--|--------0-----------------|--------0--------0-----0--|-----
D|--------------|-----------0-----0-----0--|-----------4--------4-----|-----
A|--------------|--------------------------|-----2--------------------|--2--
E|--------------|--3-----------3-----2-----|--0-----------------------|-----


E|-----------------------|----------------0--------|--2----2h3p2----5-----
B|--------3-----------3--|-----------1h3-----3-----|--3----------------5--
G|--4--------4-----4-----|-----0----------------0--|------------/7--------
D|-----4--------4--------|--------2----------------|--0-------------------
A|-----------------------|--3----------------------|----------------------
E|-----------------------|-------------------------|----------------------

                   Song start
E-------10-------||-----------------------------|--------------------------
B-------10--<7>--||--------------0-----------0--|--------------3-----------
G--7--------<7>--||--------0--------0-----0-----|--------2--------2-----2--
D----------------||-----0-----0--------0--------|-----0-----0--------0-----
A----------------||-----------------------------|--------------------------
E----------------||--3--------------------------|--2-----------------------


E|-----|-----------------------------|--------------2-----------|-----------
B|--3--|--------------0-----------0--|--------3--------3-----3--|-----------
G|-----|--------0--------0-----0-----|-----4-----4--------4-----|--------0--
D|-----|-----4-----4--------4--------|--------------------------|-----2-----
A|-----|-----------------------------|--2-----------------------|--3--------
E|-----|--0--------------------------|--------------------------|-----------


E|-------0--------|--------------------------|-----------------0--|--2-----
B|--1h3-----3-----|-----3-----------3-----3--|-----------0--------|-----3--
G|-------------0--|--------0-----------------|-----0--------0-----|--------
D|----------------|-----------0--------------|--------4-----------|--0-----
A|----------------|--------------------------|--------------------|--------
E|----------------|--3-----------3-----2-----|--0-----------------|--------


E|-----3--------2--------|-----------------------0--|--------------------2--
B|--------3--------3-----|--0-----------0-----------|--3-----------3--------
G|--2--------2--------2--|-----0-----0-----0--------|-----2-----2-----2-----
D|-----------------------|--------0-----------0-----|--------0--------------
A|-----------------------|--------------------------|-----------------------
E|-----------------------|--3-----------------------|--2--------------------


E--|--0--------------------|--------2-----------------|----------------0--
B--|--------------------0--|--3--------3-----------3--|--1--------1h3-----
G--|-----0-----------0-----|-----4--------4-----4-----|-----0-------------
D--|--------4-----4--------|-----------------4--------|--------2----------
A--|-----------2-----------|--2-----------------------|--3----------------
E--|--0--------------------|--------------------------|-------------------


E|--------|--------------------------|-----------------------|--------------
B|--3-----|--3--------------3-----3--|--------------0--------|--------3-----
G|-----0--|-----0--------------------|-----0-----------0-----|-----2-----2--
D|--------|--------0-----------------|--------4-----------4--|--0-----------
A|--------|-----------2--------------|-----------2-----------|--------------
E|--------|--3-----------3-----2-----|--0--------------------|--------------


E|--2h3p2--------|----------------0--------|--------------2-----------|-----
B|---------3-----|-----------1h3-----3-----|-----------3-----3--------|-----
G|------------2--|--------0-------------0--|--------4-----------4-----|-----
D|---------------|-----2-------------------|-----4-----------------4--|-----
A|---------------|--3----------------------|--2-----------------------|-----
E|---------------|-------------------------|--------------------------|--0--


E|--------------0--------|--------------2-----------|----------------0-----
B|-----------0-----0-----|-----------3-----3--------|-----------1h3-----3--
G|--------0-----------0--|--------4-----------4-----|--------0-------------
D|-----4-----------------|-----4-----------------4--|-----2----------------
A|--2--------------------|--2-----------------------|--3-------------------
E|-----------------------|--------------------------|----------------------


E|-----|--------------------------|-----------0--------------|--2--------3--
B|-----|-----3-----------3-----3--|-----0--------0-----------|-----3--------
G|--0--|--------0-----------------|--------0--------0-----0--|--------2-----
D|-----|-----------0--------------|--------------------4-----|--0-----------
A|-----|--------------------------|--------------------------|--------------
E|-----|--3-----------3-----2-----|--0-----------------------|--------------


E|--------2--------||--------------------------|--------------------------
B|--3--------3-----||--------------0-----------|-----------3-----------3--
G|-----2--------2--||--------0--------0-----0--|-----4--------4-----4-----
D|-----------------||-----------4--------4-----|--------4--------4--------
A|-----------------||-----2--------------------|--2-----------------------
E|-----------------||--0-----------------------|--------------------------


E--|----------------0--------|--------------------------|-----------------
B--|-----------1h3-----3-----|-----3--------------------|--------------0--
G--|-----0----------------0--|--------0-----------------|--------0--------
D--|--------2----------------|-----------0-----0-----0--|-----------4-----
A--|--3----------------------|--------------------------|-----2-----------
E--|-------------------------|--3-----------3-----2-----|--0--------------


E|-----------|--------------------------|----------------0--------|--2----
B|-----------|-----------3-----------3--|-----------1h3-----3-----|--3----
G|--0-----0--|-----4--------4-----4-----|-----0----------------0--|-------
D|-----4-----|--------4--------4--------|--------2----------------|--0----
A|-----------|--2-----------------------|--3----------------------|-------
E|-----------|--------------------------|-------------------------|-------


E|--2h3p2----5----------10--|--
B|--------------5-----------|--
G|-------/7--------7--------|--
D|--------------------------|--
A|--------------------------|--
E|--------------------------|--
Suggest correction
Give kudos to tab author, rate the tab!
1 2 3 4 5
comments
print report bad tab
guest
You may want to rate the tab now too:
select rating
Wanna post a correction for this tab? Suggest correction