Oops, an error
Loading. Please wait.

Cazafantasmas Tab

107 views 6 this week
no commentswrite comment
1 2 3 4 5
3 more votes to show rating
add to favorites
launch autoscroll
font size
0
reset
how to read this tab
guitar tuner
×
Best way to learn
"Cazafantasmas"
Autoscroll
slow
fast
+/-
esc
set tempo
stop
G--------------------------
D--------------------------
A--9-9-----------7-7-------
E--7-7---0-2-4---5-5--4-4--

B-----------------------------I------------------------------
G-------8---6-----------------I------8---6--------------6----
D--9-9----9---7--9-9-9-9-7-9--I--9-9---9---7--9-9-9-9-7---9--
A-----------------------------I------------------------------
E-----------------------------I------------------------------

B------------------------------
G--7---7---7---7---7-----------
D----9---9---9---9---9-7-8-9---
A------------------------------

B------------------------------------------
G--11----11----11----11----11--------------
D-----12----12----12----12----12-11-11-12--
A------------------------------------------
Suggest correction
Give kudos to tab author, rate the tab!
1 2 3 4 5
comments
print report bad tab
guest
You may want to rate the tab now too:
select rating
Wanna post a correction for this tab? Suggest correction