Oops, an error
Loading. Please wait.

Cinema Paradiso Tab

745 views 3 this week
no commentswrite comment
1 2 3 4 5
3 more votes to show rating
add to favorites
launch autoscroll
font size
0
reset
how to read this tab
guitar tuner
×
Best way to learn
"Cinema Paradiso"
Autoscroll
slow
fast
+/-
esc
set tempo
stop
E  |----------------------------------||
B  |-12-----------12--11----9-11------||
G  |------8--9------------------------||
D  |----------------------------------||
A  |----------------------------------||
E  |----------------------------------||

E  |--9--------------------------6---9||
B  |-------------------------7--------||
G  |----11---9--9--8-----8------------||
D  |----------------------------------||
A  |----------------------------------||
E  |----------------------------------||

E  |7-6-7--11-11----------13/14--12---||
B  |-------------9--8--9--------------||
G  |----------------------------------||
D  |----------------------------------||
A  |----------------------------------||
E  |----------------------------------||

E  |----16-14-14--12-11---------------||
B  |-14-----------------14--12-11/12--||
G  |----------------------------------||
D  |----------------------------------||
A  |----------------------------------||
E  |----------------------------------||

E  |----------------------------------||
B  |--14--12-11---------11--12-14-12--||
G  |-------------11-13----------------||
D  |----------------------------------||
A  |----------------------------------||
E  |----------------------------------||

E  |----------------------------------||
B  |----------------------------------||
G  |-11---8/9-9--8--------------------||
D  |----------------------------------||
A  |----------------------------------||
E  |----------------------------------||
Suggest correction
Give kudos to tab author, rate the tab!
1 2 3 4 5
comments
print report bad tab
guest
You may want to rate the tab now too:
select rating
Wanna post a correction for this tab? Suggest correction