Oops, an error
Loading. Please wait.

El Exorcista Tab

version 2
version 2

Whole song

125 views 3 this week
no commentswrite comment
1 2 3 4 5
3 more votes to show rating
add to favorites
launch autoscroll
font size
0
reset
how to read this tab
guitar tuner
×
Best way to learn
"El Exorcista"
Autoscroll
slow
fast
+/-
esc
set tempo
stop
 E ---------7------8-10-7-8-7-|----7------8-10-7-8-7--|----7------8-10-7-8-7--
 B ------10---8-10------------|-10---8-10-------------|-10---8-10-------------
 G ---------------------------|-----------------------|-----------------------
 D ---------------------------|-----------------------|-----------------------
 A ---------------------------|-----------------------|-----------------------
 E ---------------------------|-----------------------|-----------------------

 E ---------7------8-10-7-8-7-|----7------8-10-7-8-7--|----7------8-10-7-8-7--
 B ------10---8-10------------|-10---8-10-------------|-10---8-10-------------
 G ---------------------------|-----------------------|-----------------------
 D ---------------------------|-----------------------|-----------------------
 A ---------------------------|-----------------------|-----------------------
 E ---------------------------|-----------------------|-----------------------

 E ---------7------8-10-7-8-7-|----7------8-10-7-8-7--|----7------8-10-7-8-7--
 B ------10---8-10------------|-10---8-10-------------|-10---8-10-------------
 G ---------------------------|-----------------------|-----------------------
 D ---------------------------|-----------------------|-----------------------
 A ---------------------------|-----------------------|-----------------------
 E ---------------------------|-----------------------|-----------------------

ESTA ES LA PARTE PRINCIPAL DEL TEMA TOCADO COMO LO TOCA LA CHIRIGOTA DE CÁDIZ
"LOS PROTAGONISTAS" DE KIKE REMOLINO
Suggest correction
Give kudos to tab author, rate the tab!
1 2 3 4 5
comments
print report bad tab
guest
You may want to rate the tab now too:
select rating
Wanna post a correction for this tab? Suggest correction