Oops, an error
Loading. Please wait.

El Exorcista Bass

193 views 3 this week
no commentswrite comment
1 2 3 4 5
3 more votes to show rating
add to favorites
launch autoscroll
font size
0
reset
guitar tuner
×
Best way to learn
"El Exorcista"
Autoscroll
slow
fast
+/-
esc
set tempo
stop
bueno mi primer cancion que subo aqui
es sensilla y muy divertida de tocar solo toca segir el tiempo

afinacion - estandar
sacada de oido por - mi

intro y linea principal del bajo (0:39) (x3)
|-------------------------------------------------------------------------|
|---------------5------5------------------7--------5------5---------------|
|---------5-7-5-----------5--3-2-------------5-7-5-----------5--3-2-------|
|-5-5--5----------3-3------------3---5-5-------------3-3------------3-----|

(1:16)  (x2)
|-------------------------------------------------------------------------|
|-------------------------------------------------------------------------|
|--------------------------------------5---5------------------------------|
|-5--5-----3--3-----1--1-----0--0-------------5-5-----0--0-----5--5-------|

(2:04)
|--------------------------------------------------------------------|
|-----7----------5------5--------------------------------------------|
|----------5-7-5-----------5--3-2--------------------5-----7---------|
|-5-5---5----------3-3------------3----0-0--0----5-7---5-7----5---3--|

|-----------------|
|-----------------|
|-----5-3-2-------|
|-5-7--------3----|

|--------------------------------------------------------------------|
|-----7----------5------5--------------------------------------------|
|----------5-7-5-----------5--3-2--------------------5-----7---------|
|-5-5---5----------3-3------------3----0-0--0----5-7---5-7----5---3--|

|-----------------|
|-----------------|
|-----5-3-2-------|
|-5-7--------3----|

(2:29)  (x2)
|-------------------------------------------------------------------------|
|---------------5------5------------------7--------5------5---------------|
|---------5-7-5-----------5--3-2-------------5-7-5-----------5--3-2-------|
|-5-5--5----------3-3------------3---5-5-------------3-3------------3-----|

otro y final (2:53)
|-------------------------------------------------------------------------|
|-------------------------------------------------------------------------|
|--------------------------------------5---5------------------------------|
|-5--5-----3--3-----1--1-----0--0-------------5-5-----0--0-----5--5-------|

cualquier cosa: nombradas de madre, corecciones, comentarios, dudas
alagos (modestia aparte) favor enviar a mi mail


si no pueden coger el tiempo (lo cual lo dudo) mandenme un mail y les
enviare un archivo (*) donde solo suene el bajo (grabado tambien por mi)

(*)audio o video, lo que prefieran.
Suggest correction
Give kudos to tab author, rate the tab!
1 2 3 4 5
comments
print report bad tab
guest
You may want to rate the tab now too:
select rating
Wanna post a correction for this tab? Suggest correction