Oops, an error
Loading. Please wait.

El Fantasma De La Opera Tab

version 2
version 2

Whole song

65 views 1 this week
no commentswrite comment
1 2 3 4 5
3 more votes to show rating
add to favorites
launch autoscroll
font size
0
reset
how to read this tab
guitar tuner
Autoscroll
slow
fast
+/-
esc
set tempo
stop
Help us to improve Ultimate-Guitar.com Take our survey!
×
Aquí les mando mi primer tab, espero que les guste,
tan solo es una parte del Fantasma de la opera.
La verdad son mis arreglos, espero sea de su agrado.
Cualquier duda paulinov17@

INTRO
  [ch]A#m       [ch]G#m       SOLm[/ch]       [ch]F#m[/ch]       FAm[/ch]

e-5------l-----------l----------1---------1----------------
B-5------l-----------l----------1---------1----------------
G-5------l-----------l----------1---------1----------------
D-5---7--l-4----6----l--3----5--1--2---4--1--1----3--------
A-5---7--l-4----6----l--3----5--1--2---4--1--1----3--------
E-5------l-4---------l--3-------1--2------1--1----3--------

e--------1-----------1----------1---------1----------------
B--------1-----------1----------1---------1---------------
G--------1-----------1----------1---------1----------------
D-1---3--1--2---4----1--3----5--1--4---6--1--5----7--------
A-1---3--1--2---4----1--3----5--1--4---6--1--5----7--------
E-1------1--2--------1--3-------1--4------1--5-------------
 se repite 2 veces de forma rápida??

     [ch]Em                               LAm[/ch]

e--0---1----0----------------------------0---------------------------
B--0---1--0---0--3--1--1-----3-----0---0---0--3--1--1-----3----0-----
G--0---1---------------2---2---2---0----------------2---2---2--0-----
D--2---1---------------2-----------2----------------2----------2-----
A--2---1---------------0-----------2----------------0----------2----
E--0---1------------------------------------------------------------

e----0--3--7---55------5----10----5-----7-----7--12-------12-10------
B--0--------------5-----------------------0---------0------------13--
G-------------------0----------------------0----------0---------------
D---------------------------------------------------------------------
A----------5---33-----------------------7-----7----------------------
E------------------------------------------------12-------------------

e-----------------------1--0------------------------------------------
B--12---10--------------1--0------------------------------------------
G-----------13--11---9--1--0------------------------------------------
D-----------------------1--2-----------------------------------------
A-----------------------1--2-----------------------------------------
e--------------------0--1--0------------------------------------------
Suggest correction
Give kudos to tab author, rate the tab!
1 2 3 4 5
comments
print report bad tab
guest
You may want to rate the tab now too:
select rating
Wanna post a correction for this tab? Suggest correction