Oops, an error
Loading. Please wait.

El Golpe Tab

version 1
version 1

Whole song

59 views 1 this week
no commentswrite comment
1 2 3 4 5
3 more votes to show rating
add to favorites
launch autoscroll
font size
0
reset
how to read this tab
guitar tuner
×
Best way to learn
"El Golpe"
Autoscroll
slow
fast
+/-
esc
set tempo
stop
a ver si entienden y me entiendo en esta rola, 
muy vieja y chistosa, para mas informacion vean 
'el golpe' de 1951 parece...


e-------3-3-3----5-7-5-7-5--
b------0-0-0----8---8---8--8
g---0-2---------------------
D---------------------------
A---------------------------
E---------------------------

e-------3-3-3---------0-2-0-
b------0-0-0---3-1-0-3---3-3
g---0-2---------------------
D---------------------------
A---------------------------
E---------------------------
                            #
e-------3-3-3----5-7-5-7-5------5-7-5-7---5-7-5-7
b------0-0-0----8---8---8--8-5-8---8---5-8---8---5-8...
g---0-2---------------------------------------------
D---------------------------------------------------
A---------------------------------------------------
E---------------------------------------------------

Nota.-de donde esta el # apartir de ahi se repite el
mismo pedaso 4 veces y termina.... 
Si algo sale mal favor de avisar a Hannibal S.A. DE C.V.
ta ta...
Suggest correction
Give kudos to tab author, rate the tab!
1 2 3 4 5
comments
print report bad tab
guest
You may want to rate the tab now too:
select rating
Wanna post a correction for this tab? Suggest correction