Oops, an error
Loading. Please wait.

El Hombre Araña Chords

59 views 3 this week
no commentswrite comment
1 2 3 4 5
3 more votes to show rating
add to favorites
×
Save as Personal and add changes to this tab that will be seen only by you. Learn more ›
×
You can save this tab as Personal to edit and correct it or add notes. All changes will be seen only by you. Learn more »
save as personal
new!
launch autoscroll
font size
0
reset
transpose
0
reset
display chords
guitar tuner
Autoscroll
slow
fast
+/-
esc
set tempo
stop
Strumming
There is no strumming pattern for this song yet. and get +5 IQ
   
eb:-----------------------------------------------|
Bb:-----------------------------------------------|
Gb:-----------------------------------------------|
Db:-----------------------------------------------|
Ab:-2--2--0--x--2--2--0-------0--4--2--2--0-----x-|
Eb:----------x----------2--2-----------------2--x-|


                 
:-14-14-12----12-14-17-14--14-14-12-----12-14-17-14~~~--12-----12--------|
:----------16------------------------16---------------------16-----16-14-|
:------------------------------------------------------------------------|
:------------------------------------------------------------------------|
:------------------------------------------------------------------------|
:------------------------------------------------------------------------|

 
   spiderman el hombre araña spider man ke teje la red
eb:-------7------------------------------------------|
Bb:-------7-9--9---9----------------9----------------|
Gb:-8-8-8---10-10-10--11-10--9-9-9--9--9-9--8-6-8--9-|
Db:-9-9-9---11-11-11--11-11--9-9-9--9--9-9--9-9-9--9-|
Ab:-9-9-9---11-11-11---------7-7-7-------------------|
Eb:-7-7-7---9--9--9----------------------------------|


eb:-------7------------------------------------------|
Bb:-------7-9--9---9----------------9----------------|
Gb:-8-8-8---10-10-10--11-10--9-9-9--9--9-9--8-6-8--9-|
Db:-9-9-9---11-11-11--11-11--9-9-9--9--9-9--9-9-9--9-|
Ab:-9-9-9---11-11-11---------7-7-7-------------------|
Eb:-7-7-7---9--9--9----------------------------------|


tus manos alkanzan a todo el ke hace mal                  
:------------------------------------------------|
:------------------------------------------------|
:------------------------------------------9---9-|
:-6--6-4------------2------4----------9--9---9---|
:-6--6-4---6--------2------4----------9----------|
:-4--4-2---6--------0------2----------7----------|


ninguno se espaka si los amarras con tu tela especial
:---------------------------------------------------|
:---------------------------------------------------|
:----------------------------------------------11---|
:-6--6-4------------2----------------9-8-6-----11---|
:-6--6-4---6--------2---7-7-7-7-7----9-8-6-----9----|
:-4--4-2---6--------0---7-7-7-7-7----7-6-4----------|

  spiderman eres mi amigo
eb:-------7------------------------------------------|
Bb:-------7-9--9---9----------------9----------------|
Gb:-8-8-8---10-10-10--11-10--9-9-9--9--9-9--8-6-8--9-|
Db:-9-9-9---11-11-11--11-11--9-9-9--9--9-9--9-9-9--9-|
Ab:-9-9-9---11-11-11---------7-7-7-------------------|
Eb:-7-7-7---9--9--9----------------------------------|


eb:-------7------------------------------------------|
Bb:-------7-9--9---9----------------9----------------|
Gb:-8-8-8---10-10-10--11-10--9-9-9--9--9-9--8-6-8--9-|
Db:-9-9-9---11-11-11--11-11--9-9-9--9--9-9--9-9-9--9-|
Ab:-9-9-9---11-11-11---------7-7-7-------------------|
Eb:-7-7-7---9--9--9----------------------------------|

 y yo te pido ke sigas actuando iwal          justicia se hara
:-----------------------------------------------------------------7~~~--|
:-----------------------------------------------------------------7~~~--|
:---------------------------------------------------------5----5--7~~~--|
:---------------------------------------------------------5----5--7~~~--|
:-------------------------------------5-5-5-5-5-5-5-------5----5--5~~~--|
:---------4~~------3~~-------2~~------7-7-7-7-7-7-7--5~~-----3----------|


eb:-----------------------------------------------|
Bb:-----------------------------------------------|
Gb:-----------------------------------------------|
Db:-----------------------------------------------|
Ab:-2--2--0--x--2--2--0-------0--4--2--2--0-----x-|
Eb:----------x----------2--2-----------------2--x-|


                 
:-14-14-12----12-14-17-14--14-14-12-----12-14-17-14~~~--12-----12--------|
:----------16------------------------16---------------------16-----16-14-|
:------------------------------------------------------------------------|
:------------------------------------------------------------------------|
:------------------------------------------------------------------------|
:------------------------------------------------------------------------|

tus manos alkanzan a todo el ke hace mal                  
:------------------------------------------------|
:------------------------------------------------|
:------------------------------------------9---9-|
:-6--6-4------------2------4----------9--9---9---|
:-6--6-4---6--------2------4----------9----------|
:-4--4-2---6--------0------2----------7----------|


ninguno se espaka si los amarras con tu tela especial
:---------------------------------------------------|
:---------------------------------------------------|
:----------------------------------------------11---|
:-6--6-4------------2----------------9-8-6-----11---|
:-6--6-4---6--------2---7-7-7-7-7----9-8-6-----9----|
:-4--4-2---6--------0---7-7-7-7-7----7-6-4----------|

  spiderman...
eb:-------7------------------------------------------|
Bb:-------7-9--9---9----------------9----------------|
Gb:-8-8-8---10-10-10--11-10--9-9-9--9--9-9--8-6-8--9-|
Db:-9-9-9---11-11-11--11-11--9-9-9--9--9-9--9-9-9--9-|
Ab:-9-9-9---11-11-11---------7-7-7-------------------|
Eb:-7-7-7---9--9--9----------------------------------|


eb:-------7------------------------------------------|
Bb:-------7-9--9---9----------------9----------------|
Gb:-8-8-8---10-10-10--11-10--9-9-9--9--9-9--8-6-8--9-|
Db:-9-9-9---11-11-11--11-11--9-9-9--9--9-9--9-9-9--9-|
Ab:-9-9-9---11-11-11---------7-7-7-------------------|
Eb:-7-7-7---9--9--9----------------------------------|


y yo te pido ke sigas actuando iwal          con toda tu fuerza
:-----------------------------------------------------------------7~~~--|
:-----------------------------------------------------------------7~~~--|
:---------------------------------------------------------5----5--7~~~--|
:---------------------------------------------------------5----5--7~~~--|
:-------------------------------------5-5-5-5-5-5-5-------5----5--5~~~--|
:---------4~~------3~~-------2~~------7-7-7-7-7-7-7--5~~-----3----------|


:-14-14-12----12-14-17-14--14-14-12-----12-14-17-14~~~--12-----12--------|
:----------16------------------------16---------------------16-----16-14-|
:------------------------------------------------------------------------|
:------------------------------------------------------------------------|
:------------------------------------------------------------------------|
:------------------------------------------------------------------------|
Suggest correction
Give kudos to tab author, rate the tab!
1 2 3 4 5
comments
print report bad tab
guest
Wanna post a correction for this tab? Suggest correction